busca

Contratado da Marvel

Enzo Rabelo

Tom: C (forma dos acordes no tom de B) Capotraste na 1ª casa
[Intro] B9  A  E  A

E|------------------------------------------|
B|----------------------------------2-2-----|
G|-4-4-6h8p6\4--4-4-6h8p6\4--4-4-4--2-2-----|
D|----------------------------------2-2-----|
A|----------------------------------0-0-----|
E|------------------------------------------|

[Primeira Parte]

       B9               A9                  E
Se eu fosse um super-herói escolhendo um poder
              A9
Escolheria poder te ter
B9                        A9
   Lançar super beijinhos,  rajadas de amorzinho
   E                    A9
E da vilã carência te proteger

B9                      A9                 E
   Com meu escudo de abraço e o coração de aço
               A9
Te impressionaria fácil
B9                    A9                   E  A9
   É pena que eu não sou contratado da Marvel

[Refrão]

C#m                   E                      B9
    Não solto teia no ar, não tenho super poder
                     F#
Mas eu faria a Mary Jane ter inveja de você
C#m                        E                      B9
    É que eu não sei voar,   não sou nenhum Superman
                        F#
Mas com certeza a Lois Lane te invejaria também

C#m                   E                      B9
    Não solto teia no ar, não tenho super poder
                     F#
Mas eu faria a Mary Jane ter inveja de você
C#m                        E                      B9
    É que eu não sei voar,   não sou nenhum Superman
                        F#
Mas com certeza a Lois Lane te invejaria também

[Solo] C#m  E  B9  F#
       C#m  E  B9  F#

E|------------------------------------------|
B|-4/5-4-2----4/5-4-5-5/7------5-----5------|
G|---------4---------------4h6---4h6--------|
D|------------------------------------------|
A|------------------------------------------|
E|------------------------------------------|

E|------------------------------------------|
B|-5-4-0\2----------------------------------|
G|---------4------4---4--4-6-8\-3-----------|
D|------------4h6---6-----------------------|
A|------------------------------------------|
E|------------------------------------------|

[Primeira Parte]

       B9               A9                  E
Se eu fosse um super-herói escolhendo um poder
              A9
Escolheria poder te ter
B9                        A9
   Lançar super beijinhos,  rajadas de amorzinho
   E                    A9
E da vilã carência te proteger

B9                      A9                 E
   Com meu escudo de abraço e o coração de aço
               A9
Te impressionaria fácil
B9                    A9                   E  A9
   É pena que eu não sou contratado da Marvel

[Refrão]

C#m                   E                      B9
    Não solto teia no ar, não tenho super poder
                     F#
Mas eu faria a Mary Jane ter inveja de você
C#m                        E                      B9
    É que eu não sei voar,   não sou nenhum Superman
                        F#
Mas com certeza a Lois Lane te invejaria também

C#m                   E                      B9
    Não solto teia no ar, não tenho super poder
                     F#
Mas eu faria a Mary Jane ter inveja de você
C#m                        E                      B9
    É que eu não sei voar,   não sou nenhum Superman
                        F#
Mas com certeza a Lois Lane te invejaria também

[Solo] C#m  E  B9  F#
       C#m  E  B9  

E|------------------------------------------|
B|-4/5-4-2----4/5-4-5-5/7------5-----5------|
G|---------4---------------4h6---4h6--------|
D|------------------------------------------|
A|------------------------------------------|
E|------------------------------------------|

E|------------------------------------------|
B|-5-4-0\2----------------------------------|
G|---------4------4---4--4-6-8\-3-----------|
D|------------4h6---6-----------------------|
A|------------------------------------------|
E|------------------------------------------|

                        F#                   B9
Mas com certeza a Lois Lane te invejaria também

Clipes

Cifra Club Pro

Aproveite o Cifra Club com benefícios exclusivos e sem anúncios
Cifra Club Pro
Aproveite o Cifra Club com benefícios exclusivos e sem anúncios