busca

Famosinha

Enzo Rabelo

Tom: Db
[Intro]

E|------------------------------------------|
B|-16--18--16-18-14-------------------------|
G|------------------------------------------|
D|------------------------------------------|
A|------------------------------------------|
E|------------------------------------------|

(Db)

[Primeira Parte]

    Db9   
Eu vi você mexendo no cabelo
              Fm7
E dando um sorriso

Na tela do meu celular
                Eb9
Quase perco o juízo
                         Ab
Paralisado fiquei apaixonado

[Pré-Refrão]

        Db9 
Eu, eu dei logo um jeito
                     Fm7
De stalkear mandei joinha
    
Comprei uns seguidores
                           Eb9
Pra impressionar a blogueirinha
                             Ab
Eu moleque do morro ela famosinha e daí

Eu vou te trazer pra mim

[Refrão]

Db9
  Oh famosinha vem curtir meu coração
Fm7                                        Eb9
  Oh famosinha da like aqui que eu to gamadão
                                   Ab
Eu não quero nada seu, você pode crer

Eu só quero você

E|------------------------------------------|
B|-16--18--16-18-14-------------------------|
G|------------------------------------------|
D|------------------------------------------|
A|------------------------------------------|
E|------------------------------------------|

Db9
  Oh famosinha vem curtir meu coração
Fm7                                        Eb9
  Oh famosinha da like aqui que eu to gamadão
                                   Ab
Eu não quero nada seu, você pode crer

Eu só quero você

E|------------------------------------------|
B|-16--18--16-18-14-------------------------|
G|------------------------------------------|
D|------------------------------------------|
A|------------------------------------------|
E|------------------------------------------|

E|------------------------------------------|
B|-----9----9h11-9~-------9----9h11-9~------|
G|-/10---10-----------/10---10--------------|
D|------------------------------------------|
A|------------------------------------------|
E|------------------------------------------|

E|------------------------------------------|
B|-----9----11-13-11-9----------------------|
G|-/10---10------------/10~---8~------------|
D|------------------------------------------|
A|------------------------------------------|
E|------------------------------------------|

[Pré-Refrão]

        Db9 
Eu, eu dei logo um jeito
                     Fm7
De stalkear mandei joinha
    
Comprei uns seguidores
                           Eb9
Pra impressionar a blogueirinha
                             Ab
Eu moleque do morro ela famosinha e daí

Eu vou te trazer pra mim

[Refrão]

Db9
  Oh famosinha vem curtir meu coração
Fm7                                        Eb9
  Oh famosinha da like aqui que eu to gamadão
                                   Ab
Eu não quero nada seu, você pode crer

Eu só quero você

E|------------------------------------------|
B|-16--18--16-18-14-------------------------|
G|------------------------------------------|
D|------------------------------------------|
A|------------------------------------------|
E|------------------------------------------|

Db9
  Oh famosinha vem curtir meu coração
Fm7                                        Eb9
  Oh famosinha da like aqui que eu to gamadão
                                   Ab
Eu não quero nada seu, você pode crer

Eu só quero você

Db9
  Oh famosinha vem curtir meu coração
Fm7                                        Eb9
  Oh famosinha da like aqui que eu to gamadão
                                   Ab
Eu não quero nada seu, você pode crer

Eu só quero você

Db9
  Oh famosinha vem curtir meu coração
Fm7                                        Eb9
  Oh famosinha da like aqui que eu to gamadão
                                   Ab
Eu não quero nada seu, você pode crer

Eu só quero você

Clipes

Cifra Club Pro

Aproveite o Cifra Club com benefícios exclusivos e sem anúncios
Cifra Club Pro
Aproveite o Cifra Club com benefícios exclusivos e sem anúncios