busca

Iti Malia

Enzo Rabelo

Tom: Eb (forma dos acordes no tom de C) Capotraste na 3ª casa
[Intro] C  G  Dm7  F
        C  G  Dm7  F

E|---8/10-10-10-8-8----8/10-10-12-8---------|
B|-8-----------------8----------------------|
G|------------------------------------------|
D|------------------------------------------|
A|------------------------------------------|
E|------------------------------------------|

E|------------------------------------------|
B|-8-8/10--5/6-6-5-5-3-3--------------------|
G|------------------------------------------|
D|------------------------------------------|
A|------------------------------------------|
E|------------------------------------------|

E|---8/10-10-10-8-8----8/10-10-12-8---------|
B|-8-----------------8----------------------|
G|------------------------------------------|
D|------------------------------------------|
A|------------------------------------------|
E|------------------------------------------|

E|------------------------------------------|
B|-8-8/10--5/6-6-5-5-3-1--------------------|
G|------------------------------------------|
D|------------------------------------------|
A|------------------------------------------|
E|------------------------------------------|

[Primeira Parte]

 C9
Você ser bonita tudo bem
     G9
Mas você ser bonita e beijar bem
                 Dm7                      F
Me faz querer acrescentar você nos meus planos
             C9                 G
Vontade de sair gastando meu te amo com você 
   Dm7                          F
Será que você pode ser a que você vai querer?

[Refrão]

C9               G
   Seu papai deixa você ser só minha ? 
Dm7                 F
    Iti malia nenem   iti malia 
C9               G
   Seu papai deixa você ser só minha ? 
Dm7                 F
    Iti malia nenem   iti malia 

C9               G
   Seu papai deixa você ser só minha ? 
Dm7                 F
    Iti malia nenem   iti malia 
C9               G
   Seu papai deixa você ser só minha ? 
Dm7                 F
    Iti malia nenem   iti malia 

[Solo] C9  G  Dm7  F

E|---8/10-10-10-8-8----8/10-10-12-8---------|
B|-8-----------------8----------------------|
G|------------------------------------------|
D|------------------------------------------|
A|------------------------------------------|
E|------------------------------------------|

E|------------------------------------------|
B|-8-8/10--5/6-6-5-6-5-8-6-5----------------|
G|------------------------------------------|
D|------------------------------------------|
A|------------------------------------------|
E|------------------------------------------|

[Primeira Parte]

 C9
Você ser bonita tudo bem
     G9
Mas você ser bonita 
                 Dm7                      F
Me faz querer acrescentar você nos meus planos
             C9                 G
Vontade de sair gastando meu te amo com você 
   Dm7                          F
Será que você pode ser a que você vai querer?

[Refrão]

C9               G
   Seu papai deixa você ser só minha ? 
Dm7                 F
    Iti malia nenem   iti malia 
C9               G
   Seu papai deixa você ser só minha ? 
Dm7                 F
    Iti malia nenem   iti malia 

C9               G
   Seu papai deixa você ser só minha ? 
Dm7                 F
    Iti malia nenem   iti malia 
C9               G
   Seu papai deixa você ser só minha ? 
Dm7                 F
    Iti malia nenem   iti malia 

( C9  G )

E|---8/10-10-10-8-8----8/10-10-12-8---------|
B|-8-----------------8----------------------|
G|------------------------------------------|
D|------------------------------------------|
A|------------------------------------------|
E|------------------------------------------|

[Refrão]

C9               G
   Seu papai deixa você ser só minha ? 
Dm7                 F
    Iti malia nenem   iti malia 
C9               G
   Seu papai deixa você ser só minha ? 
Dm7                 F
    Iti malia nenem   iti malia 

C9               G
   Seu papai deixa você ser só minha ? 
Dm7                 F
    Iti malia nenem   iti malia 
C9               G
   Seu papai deixa você ser só minha ? 
Dm7                 F
    Iti malia nenem   iti malia 

[Final] C9  G  Dm7  F  C

E|---8/10-10-10-8-8----8/10-10-12-8---------|
B|-8-----------------8----------------------|
G|------------------------------------------|
D|------------------------------------------|
A|------------------------------------------|
E|------------------------------------------|

E|------------------------------------------|
B|-8-8/10--5/6-6-5-6/8-6-5------------------|
G|------------------------------------------|
D|------------------------------------------|
A|------------------------------------------|
E|------------------------------------------|

Clipes

Cifra Club Pro

Aproveite o Cifra Club com benefícios exclusivos e sem anúncios
Cifra Club Pro
Aproveite o Cifra Club com benefícios exclusivos e sem anúncios