Iti Malia

Enzo Rabelo

C
123
X32010
C9
34
X35533
Dm7
34
X57565
F
234
133211
G
123
320003
G9
12
3X020X
Tom: G
[Intro] C  G  Dm7  F
        C  G  Dm7  F

#1t1##1t2#E|---8/10-10-10-8-8----8/10-10-12-8---------|
B|-8-----------------8----------------------|
G|------------------------------------------|
D|------------------------------------------|
A|------------------------------------------|
E|------------------------------------------|#/1t2##/1t1#

#2t1##2t2#E|------------------------------------------|
B|-8-8/10--5/6-6-5-5-3-3--------------------|
G|------------------------------------------|
D|------------------------------------------|
A|------------------------------------------|
E|------------------------------------------|#/2t2##/2t1#

#3t1##3t2#E|---8/10-10-10-8-8----8/10-10-12-8---------|
B|-8-----------------8----------------------|
G|------------------------------------------|
D|------------------------------------------|
A|------------------------------------------|
E|------------------------------------------|#/3t2##/3t1#

#4t1##4t2#E|------------------------------------------|
B|-8-8/10--5/6-6-5-5-3-1--------------------|
G|------------------------------------------|
D|------------------------------------------|
A|------------------------------------------|
E|------------------------------------------|#/4t2##/4t1#

[Primeira Parte]

 C9
Você ser bonita tudo bem
     G9
Mas você ser bonita e beijar bem
                 Dm7                      F
Me faz querer acrescentar você nos meus planos
             C9                 G
Vontade de sair gastando meu te amo com você 
   Dm7                          F
Será que você pode ser a que você vai querer?

[Refrão]

C9               G
   Seu papai deixa você ser só minha ? 
Dm7                 F
    Iti malia nenem   iti malia 
C9               G
   Seu papai deixa você ser só minha ? 
Dm7                 F
    Iti malia nenem   iti malia 

C9               G
   Seu papai deixa você ser só minha ? 
Dm7                 F
    Iti malia nenem   iti malia 
C9               G
   Seu papai deixa você ser só minha ? 
Dm7                 F
    Iti malia nenem   iti malia 

[Solo] C9  G  Dm7  F

#5t1##5t2#E|---8/10-10-10-8-8----8/10-10-12-8---------|
B|-8-----------------8----------------------|
G|------------------------------------------|
D|------------------------------------------|
A|------------------------------------------|
E|------------------------------------------|#/5t2##/5t1#

#6t1##6t2#E|------------------------------------------|
B|-8-8/10--5/6-6-5-6-5-8-6-5----------------|
G|------------------------------------------|
D|------------------------------------------|
A|------------------------------------------|
E|------------------------------------------|#/6t2##/6t1#

[Primeira Parte]

 C9
Você ser bonita tudo bem
     G9
Mas você ser bonita 
                 Dm7                      F
Me faz querer acrescentar você nos meus planos
             C9                 G
Vontade de sair gastando meu te amo com você 
   Dm7                          F
Será que você pode ser a que você vai querer?

[Refrão]

C9               G
   Seu papai deixa você ser só minha ? 
Dm7                 F
    Iti malia nenem   iti malia 
C9               G
   Seu papai deixa você ser só minha ? 
Dm7                 F
    Iti malia nenem   iti malia 

C9               G
   Seu papai deixa você ser só minha ? 
Dm7                 F
    Iti malia nenem   iti malia 
C9               G
   Seu papai deixa você ser só minha ? 
Dm7                 F
    Iti malia nenem   iti malia 

( C9  G )

#7t1##7t2#E|---8/10-10-10-8-8----8/10-10-12-8---------|
B|-8-----------------8----------------------|
G|------------------------------------------|
D|------------------------------------------|
A|------------------------------------------|
E|------------------------------------------|#/7t2##/7t1#

[Refrão]

C9               G
   Seu papai deixa você ser só minha ? 
Dm7                 F
    Iti malia nenem   iti malia 
C9               G
   Seu papai deixa você ser só minha ? 
Dm7                 F
    Iti malia nenem   iti malia 

C9               G
   Seu papai deixa você ser só minha ? 
Dm7                 F
    Iti malia nenem   iti malia 
C9               G
   Seu papai deixa você ser só minha ? 
Dm7                 F
    Iti malia nenem   iti malia 

[Final] C9  G  Dm7  F  C

#8t1##8t2#E|---8/10-10-10-8-8----8/10-10-12-8---------|
B|-8-----------------8----------------------|
G|------------------------------------------|
D|------------------------------------------|
A|------------------------------------------|
E|------------------------------------------|#/8t2##/8t1#

#9t1##9t2#E|------------------------------------------|
B|-8-8/10--5/6-6-5-6/8-6-5------------------|
G|------------------------------------------|
D|------------------------------------------|
A|------------------------------------------|
E|------------------------------------------|#/9t2##/9t1#
Composição: De Angelo / Diego Silveira / Rafa BorgesColaboração e revisão: Thiago Almeida