Ab
234
431114
C
123
X32010
C9
34
X35533
D
123
XX0232
Db
234
X46664
Eb
234
X65343
G
123
320003
G4
234
355533
Tom: G
[Intro] G  G4  G  G4  
        G  C9

[Solo]

#1t1##1t2#E|--------7-10--7p5-------------7-7/10------|
B|-7/8-10-----------8-7--7/8-10-------------|
G|------------------------------------------|
D|------------------------------------------|
A|------------------------------------------|
E|------------------------------------------|#/1t2##/1t1#

#2t1##2t2#E|--------7-10--7p5-------------------------|
B|-7/8-10-----------8-7--7/8-7-5--5/7\5-3---|
G|------------------------------------------|
D|------------------------------------------|
A|------------------------------------------|
E|------------------------------------------|#/2t2##/2t1#

[Primeira Parte]

G
  Tô aqui na cama

Pronto pra dormir
C9
   Camiseta branca
                G
Com sua foto aqui

Tá difícil dormir

Tô lendo um livro pra distrair
C9
   A falta de você é grande aqui

[Refrão]

   G
O vento
      D
Me levou
                C
Pra perto de você
                              G
E agora o que é que eu vou fazer?
                D
Se você não voltar
                  C
Se não quiser voltar

   G
O vento
      D
Me levou
                C
Pra perto de você
                              G
E agora o que é que eu vou fazer?
                D
Se você não voltar
                  C
Se não quiser voltar

Só você tem o dom de me fazer chorar

[Solo] G  C9

#3t1##3t2#E|--------7-10--7p5-------------7-7/10------|
B|-7/8-10-----------8-7--7/8-10-------------|
G|------------------------------------------|
D|------------------------------------------|
A|------------------------------------------|
E|------------------------------------------|#/3t2##/3t1#

#4t1##4t2#E|--------7-10--7p5-------------------------|
B|-7/8-10-----------8-7--7/8-7-5--5/7\5-3---|
G|------------------------------------------|
D|------------------------------------------|
A|------------------------------------------|
E|------------------------------------------|#/4t2##/4t1#

[Primeira Parte]

G
  Tá difícil dormir

Tô lendo um livro pra distrair
C9
   A falta de você é grande aqui

[Refrão]

   G
O vento
      D
Me levou
                C
Pra perto de você
                              G
E agora o que é que eu vou fazer?
                D
Se você não voltar
                  C
Se não quiser voltar

   G
O vento
      D
Me levou
                C
Pra perto de você
                              G
E agora o que é que eu vou fazer?
                D
Se você não voltar
                  C  Db
Se não quiser voltar

   Ab
O vento
      Eb
Me levou
                Db
Pra perto de você
                              Ab
E agora o que é que eu vou fazer?
                Eb
Se você não voltar
                  Db
Se não quiser voltar

Só você tem o dom de me fazer chorar

[Solo] Ab

#5t1##5t2#E|--------8-11--8p6-------------------------|
B|-8/9-11-----------9-8--8/9-8-4------------|
G|------------------------------------------|
D|------------------------------------------|
A|------------------------------------------|
E|------------------------------------------|#/5t2##/5t1#
Composição: Enzo RabeloColaboração e revisão: Thiago Almeida