busca

O Vento

Enzo Rabelo

Tom: A (forma dos acordes no tom de G) Capotraste na 2ª casa
[Intro] G  G4  G  G4  
        G  C9

[Solo]

E|--------7-10--7p5-------------7-7/10------|
B|-7/8-10-----------8-7--7/8-10-------------|
G|------------------------------------------|
D|------------------------------------------|
A|------------------------------------------|
E|------------------------------------------|

E|--------7-10--7p5-------------------------|
B|-7/8-10-----------8-7--7/8-7-5--5/7\5-3---|
G|------------------------------------------|
D|------------------------------------------|
A|------------------------------------------|
E|------------------------------------------|

[Primeira Parte]

G
  Tô aqui na cama

Pronto pra dormir
C9
   Camiseta branca
                G
Com sua foto aqui

Tá difícil dormir

Tô lendo um livro pra distrair
C9
   A falta de você é grande aqui

[Refrão]

   G
O vento
      D
Me levou
                C
Pra perto de você
                              G
E agora o que é que eu vou fazer?
                D
Se você não voltar
                  C
Se não quiser voltar

   G
O vento
      D
Me levou
                C
Pra perto de você
                              G
E agora o que é que eu vou fazer?
                D
Se você não voltar
                  C
Se não quiser voltar

Só você tem o dom de me fazer chorar

[Solo] G  C9

E|--------7-10--7p5-------------7-7/10------|
B|-7/8-10-----------8-7--7/8-10-------------|
G|------------------------------------------|
D|------------------------------------------|
A|------------------------------------------|
E|------------------------------------------|

E|--------7-10--7p5-------------------------|
B|-7/8-10-----------8-7--7/8-7-5--5/7\5-3---|
G|------------------------------------------|
D|------------------------------------------|
A|------------------------------------------|
E|------------------------------------------|

[Primeira Parte]

G
  Tá difícil dormir

Tô lendo um livro pra distrair
C9
   A falta de você é grande aqui

[Refrão]

   G
O vento
      D
Me levou
                C
Pra perto de você
                              G
E agora o que é que eu vou fazer?
                D
Se você não voltar
                  C
Se não quiser voltar

   G
O vento
      D
Me levou
                C
Pra perto de você
                              G
E agora o que é que eu vou fazer?
                D
Se você não voltar
                  C  Db
Se não quiser voltar

   Ab
O vento
      Eb
Me levou
                Db
Pra perto de você
                              Ab
E agora o que é que eu vou fazer?
                Eb
Se você não voltar
                  Db
Se não quiser voltar

Só você tem o dom de me fazer chorar

[Solo] Ab

E|--------8-11--8p6-------------------------|
B|-8/9-11-----------9-8--8/9-8-4------------|
G|------------------------------------------|
D|------------------------------------------|
A|------------------------------------------|
E|------------------------------------------|

Clipes

Cifra Club Pro

Aproveite o Cifra Club com benefícios exclusivos e sem anúncios
Cifra Club Pro
Aproveite o Cifra Club com benefícios exclusivos e sem anúncios