busca

Palavra de Escoteiro

Enzo Rabelo

Tom: G
[Intro] F#7M  G#/E  C#6

   F#7M                    G#/E
E|-5-5-5-2-1----5-5-5-2-1-------|
B|-----------3------------5-----|
G|------------------------------|
D|------------------------------|
A|------------------------------|
E|------------------------------|

   G#6       C#6 
E|-2-3-2----5-3-5-3-5-3-5-------|
B|-3-5-3----7-5-7-5-7-5-7-------|
G|------------------------------|
D|------------------------------|
A|------------------------------|
E|------------------------------|

[Primeira Parte]

F#7M           
Eu você e o 
 G#
Céu e uma fogueira
          A#m7
E o barulhinho 
C#a cachoeira
 C#9         G#9
Tem aquele tio 
C#a churrasqueira
             F#m7
Contando história 
A noite inteira
            F#7M
O clima ta bom 
          G#
Voz e violão 
              A#m7
Mas o que eu quero 
É o seu coração
                G
O que é que eu faço 
                        G#9  
Pra conquistar o seu abraço

[Refrão]

       F#m4      G
Se eu te     ganhar
       G#
Nessa vida eu tô feito 
       C#9
Eu só vou amar você
     G#9           A#m
E palavra de escoteiro

       F#m4      G
Se eu te     ganhar
       G#
Nessa vida eu tô feito 
       C#9
Eu só vou amar você
     G#9           A#m7 
E palavra de escoteiro

[Solo] C#  G#  A#m  F#7M  A#m

   C#           G#         A#m                     
E|---5--------------------------|
B|-7---7-7-7-7p5-5-5-5-5/7------|
G|-------------------------6h7--|
D|------------------------------|
A|------------------------------|
E|------------------------------|

   F#7M                   A#m
E|-5-5-5-3-2--5-7/5-------------|
B|-7-7-7-5-3-------8p7-3/5------|
G|------------------------------|
D|------------------------------|
A|------------------------------|
E|------------------------------|

[Primeira Parte]

    C#       F#7M
O clima ta bom 
          G#
Voz e violão 
              A#m7
Mas o que eu quero 
É o seu coração
                F#7M
O que é que eu faço 
                        G#9  
Pra conquistar o seu abraço

[Refrão]

       F#m4      F#7M
Se eu te     ganhar
       G#
Nessa vida eu tô feito 
       C#9         C#6
Eu só vou amar você
     G#9           A#m
E palavra de escoteiro

       F#m4      F#7M
Se eu te     ganhar
       G#
Nessa vida eu tô feito 
       C#9         C#6
Eu só vou amar você
     G#9           A#m7 
E palavra de escoteiro

       F#m4      F#7M
Se eu te     ganhar
       G#
Nessa vida eu tô feito 
       C#9         C#6
Eu só vou amar você
     G#9           A#m7 
E palavra de escoteiro

       F#m4      F#7M
Se eu te     ganhar
       G#
Nessa vida eu tô feito 
       C#9         C#6
Eu só vou amar você
     G#9           A#m7 
É palavra de escoteiro

( F#7M  G#/E  C#6 )

Clipes

Cifra Club Pro

Aproveite o Cifra Club com benefícios exclusivos e sem anúncios
Cifra Club Pro
Aproveite o Cifra Club com benefícios exclusivos e sem anúncios