Palavra de Escoteiro

Enzo Rabelo

A#m
234
X13321
A#m7
34
X13121
C#
234
X46664
C#6
1234
9X8109X
C#9
34
X46644
F#7M
1234
2X332X
F#m4
3
224222
F#m7
1234
2X222X
G
123
320003
G#
234
431114
G#/E
123
0X111X
G#6
1234
4X354X
G#9
234
468544
Tom: G
[Intro] F#7M  G#/E  C#6

#1t1#   F#7M                    G#/E
#1t2#E|-5-5-5-2-1----5-5-5-2-1-------|
B|-----------3------------5-----|
G|------------------------------|
D|------------------------------|
A|------------------------------|
E|------------------------------|#/1t2##/1t1#

#2t1#   G#6       C#6 
#2t2#E|-2-3-2----5-3-5-3-5-3-5-------|
B|-3-5-3----7-5-7-5-7-5-7-------|
G|------------------------------|
D|------------------------------|
A|------------------------------|
E|------------------------------|#/2t2##/2t1#

[Primeira Parte]

F#7M           
Eu você e o 
 G#
Céu e uma fogueira
          A#m7
E o barulhinho 
C#a cachoeira
 C#9         G#9
Tem aquele tio 
C#a churrasqueira
             F#m7
Contando história 
A noite inteira
            F#7M
O clima ta bom 
          G#
Voz e violão 
              A#m7
Mas o que eu quero 
É o seu coração
                G
O que é que eu faço 
                        G#9  
Pra conquistar o seu abraço

[Refrão]

       F#m4      G
Se eu te     ganhar
       G#
Nessa vida eu tô feito 
       C#9
Eu só vou amar você
     G#9           A#m
E palavra de escoteiro

       F#m4      G
Se eu te     ganhar
       G#
Nessa vida eu tô feito 
       C#9
Eu só vou amar você
     G#9           A#m7 
E palavra de escoteiro

[Solo] C#  G#  A#m  F#7M  A#m

#3t1#   C#           G#         A#m                     
#3t2#E|---5--------------------------|
B|-7---7-7-7-7p5-5-5-5-5/7------|
G|-------------------------6h7--|
D|------------------------------|
A|------------------------------|
E|------------------------------|#/3t2##/3t1#

#4t1#   F#7M                   A#m
#4t2#E|-5-5-5-3-2--5-7/5-------------|
B|-7-7-7-5-3-------8p7-3/5------|
G|------------------------------|
D|------------------------------|
A|------------------------------|
E|------------------------------|#/4t2##/4t1#

[Primeira Parte]

    C#       F#7M
O clima ta bom 
          G#
Voz e violão 
              A#m7
Mas o que eu quero 
É o seu coração
                F#7M
O que é que eu faço 
                        G#9  
Pra conquistar o seu abraço

[Refrão]

       F#m4      F#7M
Se eu te     ganhar
       G#
Nessa vida eu tô feito 
       C#9         C#6
Eu só vou amar você
     G#9           A#m
E palavra de escoteiro

       F#m4      F#7M
Se eu te     ganhar
       G#
Nessa vida eu tô feito 
       C#9         C#6
Eu só vou amar você
     G#9           A#m7 
E palavra de escoteiro

       F#m4      F#7M
Se eu te     ganhar
       G#
Nessa vida eu tô feito 
       C#9         C#6
Eu só vou amar você
     G#9           A#m7 
E palavra de escoteiro

       F#m4      F#7M
Se eu te     ganhar
       G#
Nessa vida eu tô feito 
       C#9         C#6
Eu só vou amar você
     G#9           A#m7 
É palavra de escoteiro

( F#7M  G#/E  C#6 )
Composição: Rafael Almeida / Pedro Padilha / Adryel LimaColaboração e revisão: Gabriel Silva