Serumaninho

Enzo Rabelo

Am
123
X02210
Bb
234
X13331
Bb9
34
X13311
C
123
X32010
C9
34
X35533
Dm7
34
X57565
F
234
133211
Gm
34
355333
Tom: G
[Intro] 

[Riff]

#1t1##1t2#E|------------------------------------------|
B|-------5-6-8-6----------------------------|
G|---5-7------------------------------------|
D|-7----------------------------------------|
A|------------------------------------------|
E|------------------------------------------|#/1t2##/1t1#

[Primeira Parte]

F  C  F
Olha só

Nem precisa complicar
                C
Conheço esse olhar

E hoje de manhã no meu espelho
  Am   F  C  Am  Bb
Quando eu a_co_rdei

[Pré-Refrão]

     Bb9
Não sei se é certo
 C9          F   
Mas a gente já deu certo
    Am  C  F  C  F  C  Bb9
E quer to_da ho_ra tá perto
       C9                Dm7
Na distância exata do abraço
        C
E como diz o ditado

[Refrão]

                  F
Só sei que somos dois serumaninhos
                 C
Que delícia é ficar agarradinhos
                  Gm                  Dm7
Nosso beijo combinou, rapidinho já rolou
                     Bb9               C
Feito flor e beija-flor deu bem certinho

                  F
Só sei que somos dois serumaninhos
                 C
Que delícia é ficar agarradinhos
                  Gm                  Dm7
Nosso beijo combinou, rapidinho já rolou
                     Bb9               C
Feito flor e beija-flor deu bem certinho

[Solo] F  C  Gm 
       F  Bb9  C 

#2t1##2t2#E|------------------------------------------|
B|-----5-6-8-8/10--10-10\8-8\6--------------|
G|-5-7--------------------------------------|
D|------------------------------------------|
A|------------------------------------------|
E|------------------------------------------|#/2t2##/2t1#

#3t1##3t2#E|---------------------------8-6-5---6------|
B|-----5-6-7-8--8-8\6-6-5--5-------8--------|
G|-5-7--------------------------------------|
D|------------------------------------------|
A|------------------------------------------|
E|------------------------------------------|#/3t2##/3t1#

#4t1##4t2#E|-8-6-5---------6--8~------6---------------|
B|-------8-6--------------------------------|
G|------------/7--------5h7-----------------|
D|------------------------------------------|
A|------------------------------------------|
E|------------------------------------------|#/4t2##/4t1#

[Pré-Refrão]

     Bb9
Nem sei se é certo
 C9          F   
Mas a gente já deu certo
    Am  C  F  C  F  C  Bb9
E quer to_da ho_ra tá perto
       C9                Dm7
Na distância exata do abraço
        C
E como diz o ditado

[Refrão]

                  F
Só sei que somos dois serumaninhos
                 C
Que delícia é ficar agarradinhos
                  Gm                  Dm7
Nosso beijo combinou, rapidinho já rolou
                     Bb9               C
Feito flor e beija-flor deu bem certinho

                  F
Só sei que somos dois serumaninhos
                 C
Que delícia é ficar agarradinhos
                  Gm                  Dm7
Nosso beijo combinou, rapidinho já rolou
                     Bb9               C
Feito flor e beija-flor deu bem certinho

                  F
Só sei que somos dois serumaninhos
                 C
Que delícia é ficar agarradinhos
                  Gm                  Dm7
Nosso beijo combinou, rapidinho já rolou
                     Bb9               C
Feito flor e beija-flor deu bem certinho

                  F
Só sei que somos dois serumaninhos
Composição: Benicio Neto / JuniorGomes / ViniciusPoetaColaboração e revisão: Thiago Almeida