busca

Serumaninho

Enzo Rabelo

Tom: F# (forma dos acordes no tom de F) Capotraste na 1ª casa
[Intro] 

[Riff]

E|------------------------------------------|
B|-------5-6-8-6----------------------------|
G|---5-7------------------------------------|
D|-7----------------------------------------|
A|------------------------------------------|
E|------------------------------------------|

[Primeira Parte]

F  C  F
Olha só

Nem precisa complicar
                C
Conheço esse olhar

E hoje de manhã no meu espelho
  Am   F  C  Am  Bb
Quando eu a_co_rdei

[Pré-Refrão]

     Bb9
Não sei se é certo
 C9          F   
Mas a gente já deu certo
    Am  C  F  C  F  C  Bb9
E quer to_da ho_ra tá perto
       C9                Dm7
Na distância exata do abraço
        C
E como diz o ditado

[Refrão]

                  F
Só sei que somos dois serumaninhos
                 C
Que delícia é ficar agarradinhos
                  Gm                  Dm7
Nosso beijo combinou, rapidinho já rolou
                     Bb9               C
Feito flor e beija-flor deu bem certinho

                  F
Só sei que somos dois serumaninhos
                 C
Que delícia é ficar agarradinhos
                  Gm                  Dm7
Nosso beijo combinou, rapidinho já rolou
                     Bb9               C
Feito flor e beija-flor deu bem certinho

[Solo] F  C  Gm 
       F  Bb9  C 

E|------------------------------------------|
B|-----5-6-8-8/10--10-10\8-8\6--------------|
G|-5-7--------------------------------------|
D|------------------------------------------|
A|------------------------------------------|
E|------------------------------------------|

E|---------------------------8-6-5---6------|
B|-----5-6-7-8--8-8\6-6-5--5-------8--------|
G|-5-7--------------------------------------|
D|------------------------------------------|
A|------------------------------------------|
E|------------------------------------------|

E|-8-6-5---------6--8~------6---------------|
B|-------8-6--------------------------------|
G|------------/7--------5h7-----------------|
D|------------------------------------------|
A|------------------------------------------|
E|------------------------------------------|

[Pré-Refrão]

     Bb9
Nem sei se é certo
 C9          F   
Mas a gente já deu certo
    Am  C  F  C  F  C  Bb9
E quer to_da ho_ra tá perto
       C9                Dm7
Na distância exata do abraço
        C
E como diz o ditado

[Refrão]

                  F
Só sei que somos dois serumaninhos
                 C
Que delícia é ficar agarradinhos
                  Gm                  Dm7
Nosso beijo combinou, rapidinho já rolou
                     Bb9               C
Feito flor e beija-flor deu bem certinho

                  F
Só sei que somos dois serumaninhos
                 C
Que delícia é ficar agarradinhos
                  Gm                  Dm7
Nosso beijo combinou, rapidinho já rolou
                     Bb9               C
Feito flor e beija-flor deu bem certinho

                  F
Só sei que somos dois serumaninhos
                 C
Que delícia é ficar agarradinhos
                  Gm                  Dm7
Nosso beijo combinou, rapidinho já rolou
                     Bb9               C
Feito flor e beija-flor deu bem certinho

                  F
Só sei que somos dois serumaninhos

Clipes

Cifra Club Pro

Aproveite o Cifra Club com benefícios exclusivos e sem anúncios
Cifra Club Pro
Aproveite o Cifra Club com benefícios exclusivos e sem anúncios