Tijolinho Por Tijolinho (part. Zé Felipe)

Enzo Rabelo

B
234
X24442
B/D#
1234
X6X477
B9
34
X24422
C#m
234
X46654
E
123
022100
F#
234
244322
F#/A#
1234
6X467X
G#m
34
466444
Tom: G
[Intro] E  F#  G#m  F#  E

#1t1##1t2#E|----------------------------------------------------|
B|-/12-12-12-12-11-9-7-7h9~--7-7h9~--7-7h9~--7--------|
G|----------------------------------------------------|
D|----------------------------------------------------|
A|----------------------------------------------------|
E|----------------------------------------------------|#/1t2##/1t1#

#2t1##2t2#E|----------------------------------------------------|
B|-9p7------------------------------------------------|
G|-----8---6---8p6--------9-9-8~----------------------|
D|-----------------9---/x-----------------------------|
A|----------------------------------------------------|
E|----------------------------------------------------|#/2t2##/2t1#

[Primeira Parte]

B9                                 G#m
  E algumas mentiras beijaram sua boca
                      E
Uma decepção atrás da outra
              B9  E
Eu entendo você
B9                               G#m
  O seu amor tem trauma do passado
                             E
E o sentimento deve tá rachado
                  F#
Mas eu entendo você

[Pré-Refrão]

             E
E o seu coração perdeu a cor
    E   F#   G#m
Cansou de errar a mão
       G#m  F#/A#  B9
O seu te---to 
                     F#
Desabou e perdeu o chão
                       C#m             E
E mas pendura uma plaquinha aí de atenção
          F#
Um novo amor em construção

[Refrão]

                     E
E tijolinho por tijolinho
          F#          G#m
Vou reformar seu coração
                     E
E vai ter amor espalhado 
       F#             G#m  
Nas paredes, teto e chão
B9                   E
E tijolinho por tijolinho
          F#          G#m
Vou reformar seu coração
                     E
E vai ter amor espalhado 
       F#             G#m  B9
Nas paredes, teto e chão

[Solo] E  F#  G#m  B 
       E  F# 

#3t1##3t2#E|-11-11-11--11-11-9-7-6-6h7~--6-6h7~--6-6h7~--6------|
B|----------------------------------------------------|
G|----------------------------------------------------|
D|----------------------------------------------------|
A|----------------------------------------------------|
E|----------------------------------------------------|#/3t2##/3t1#

#4t1##4t2#E|-7p6-7p9--------------------------------------------|
B|---------7~-----------------------------------------|
G|----------------------------------------------------|
D|----------------------------------------------------|
A|----------------------------------------------------|
E|----------------------------------------------------|#/4t2##/4t1#

#5t1##5t2#E|----------------------------------------------------|
B|-12-12-12--12-12-11-9-7-7h9~--7-7h9~--7\2~----------|
G|----------------------------------------------------|
D|----------------------------------------------------|
A|----------------------------------------------------|
E|----------------------------------------------------|#/5t2##/5t1#

[Pré-Refrão]

             E
E o seu coração perdeu a cor
    E   F#   G#m
Cansou de errar a mão
       G#m  F#/A#  B9
O seu te---to 
                     F#
Desabou e perdeu o chão
                       C#m             E
E mas pendura uma plaquinha aí de atenção
          F#
Um novo amor em construção

[Refrão]

                     E
E tijolinho por tijolinho
          F#          G#m
Vou reformar seu coração
                     E
E vai ter amor espalhado 
       F#             G#m  
Nas paredes, teto e chão
B9                   E
E tijolinho por tijolinho
          F#          G#m
Vou reformar seu coração
                     E
E vai ter amor espalhado 
       F#             G#m 
Nas paredes, teto e chão

B9                   E
E tijolinho por tijolinho
          F#      G#m  F#/A#
Vou reformar seu cora-ção
B9          C#m  B/D#  E
  E vai ter amor espalhado 
       F#             G#m  F#  G#m
Nas paredes, teto e chão

( F#  G#m )

B9                   E
E tijolinho por tijolinho
          F#          G#m
Vou reformar seu coração
B9                   E
E vai ter amor espalhado 
       F#             G#m
Nas paredes, teto e chão
Composição: Daniel Caon / Junior Gomes / Vinicius PoetaColaboração e revisão: Lucas Kappaun