busca

Tijolinho Por Tijolinho (part. Zé Felipe)

Enzo Rabelo

Tom: B
[Intro] E  F#  G#m  F#  E

E|----------------------------------------------------|
B|-/12-12-12-12-11-9-7-7h9~--7-7h9~--7-7h9~--7--------|
G|----------------------------------------------------|
D|----------------------------------------------------|
A|----------------------------------------------------|
E|----------------------------------------------------|

E|----------------------------------------------------|
B|-9p7------------------------------------------------|
G|-----8---6---8p6--------9-9-8~----------------------|
D|-----------------9---/x-----------------------------|
A|----------------------------------------------------|
E|----------------------------------------------------|

[Primeira Parte]

B9                                 G#m
  E algumas mentiras beijaram sua boca
                      E
Uma decepção atrás da outra
              B9  E
Eu entendo você
B9                               G#m
  O seu amor tem trauma do passado
                             E
E o sentimento deve tá rachado
                  F#
Mas eu entendo você

[Pré-Refrão]

             E
E o seu coração perdeu a cor
    E   F#   G#m
Cansou de errar a mão
       G#m  F#/A#  B9
O seu te---to 
                     F#
Desabou e perdeu o chão
                       C#m             E
E mas pendura uma plaquinha aí de atenção
          F#
Um novo amor em construção

[Refrão]

                     E
E tijolinho por tijolinho
          F#          G#m
Vou reformar seu coração
                     E
E vai ter amor espalhado 
       F#             G#m  
Nas paredes, teto e chão
B9                   E
E tijolinho por tijolinho
          F#          G#m
Vou reformar seu coração
                     E
E vai ter amor espalhado 
       F#             G#m  B9
Nas paredes, teto e chão

[Solo] E  F#  G#m  B 
       E  F# 

E|-11-11-11--11-11-9-7-6-6h7~--6-6h7~--6-6h7~--6------|
B|----------------------------------------------------|
G|----------------------------------------------------|
D|----------------------------------------------------|
A|----------------------------------------------------|
E|----------------------------------------------------|

E|-7p6-7p9--------------------------------------------|
B|---------7~-----------------------------------------|
G|----------------------------------------------------|
D|----------------------------------------------------|
A|----------------------------------------------------|
E|----------------------------------------------------|

E|----------------------------------------------------|
B|-12-12-12--12-12-11-9-7-7h9~--7-7h9~--7\2~----------|
G|----------------------------------------------------|
D|----------------------------------------------------|
A|----------------------------------------------------|
E|----------------------------------------------------|

[Pré-Refrão]

             E
E o seu coração perdeu a cor
    E   F#   G#m
Cansou de errar a mão
       G#m  F#/A#  B9
O seu te---to 
                     F#
Desabou e perdeu o chão
                       C#m             E
E mas pendura uma plaquinha aí de atenção
          F#
Um novo amor em construção

[Refrão]

                     E
E tijolinho por tijolinho
          F#          G#m
Vou reformar seu coração
                     E
E vai ter amor espalhado 
       F#             G#m  
Nas paredes, teto e chão
B9                   E
E tijolinho por tijolinho
          F#          G#m
Vou reformar seu coração
                     E
E vai ter amor espalhado 
       F#             G#m 
Nas paredes, teto e chão

B9                   E
E tijolinho por tijolinho
          F#      G#m  F#/A#
Vou reformar seu cora-ção
B9          C#m  B/D#  E
  E vai ter amor espalhado 
       F#             G#m  F#  G#m
Nas paredes, teto e chão

( F#  G#m )

B9                   E
E tijolinho por tijolinho
          F#          G#m
Vou reformar seu coração
B9                   E
E vai ter amor espalhado 
       F#             G#m
Nas paredes, teto e chão

Clipes