Principal
B5
134
X244XX
C5
134
X355XX
D5
134
X577XX
E5
12
022XXX
Tom: G
[Introdução 4x] E5  D5  E5  
                D5

#1t1##1t2#E|-----------------------------------------------------|
B|-----------------------------------------------------|
G|-----------------------------------------------------|
D|--------------0h2~----0-------0----------------------|
A|-0h2p0h2p...-------------0h2----0--------------------|
E|----------------------------------3b--0--------------|#/1t2##/1t1#

#2t1##2t2#E|-----------------------------------------------------|
B|-3-0-------------------------------------------------|
G|------2---0h1----------------------------------------|
D|---------------2--0--2--------0----------------------|
A|--------------------------0h2----0-------------------|
E|-------------------------------------3b--------------|#/2t2##/2t1#

[Primeira Estrofe]

        E5    D5  E5
If you wanna hang out 
              D5
You've got to    take her out
   E5   D5  E5  D5
Cocaine

#3t1##3t2#E|-----------------------------------------------------|
B|-----------------------------------------------------|
G|-7/9\7~~---------------------------------------------|
D|-7/9\7~~---------------------------------------------|
A|-----------------------------------------------------|
E|-----------------------------------------------------|#/3t2##/3t1#

        E5    D5  E5  D5
If you wanna get down

Down on the ground
   E5   D5  E5  D5
Cocaine

#4t1##4t2#E|-----------------------------------------------------|
B|-----------------------------------------------------|
G|-7/9\7~~---------------------------------------------|
D|-7/9\7~~---------------------------------------------|
A|-----------------------------------------------------|
E|-----------------------------------------------------|#/4t2##/4t1#

[Refrão]

           E5
She don't lie
           D5
She don't lie
           C5  B5
She don't lie
 
   E5   D5  E5  D5
Cocaine

( E5  D5  E5  D5 )

#5t1##5t2#E|-----------------------------------------------------|
B|-----------------------------------------------------|
G|-4-4-2-4----0h1-1h2----------------------------------|
D|-2-2-0-2----2---0------------------------------------|
A|-----------------------------------------------------|
E|-----------------------------------------------------|#/5t2##/5t1#

[Segunda Estrofe]

        E5     D5  E5
If you got bad    news
          D5
You wanna    kick them blues
   E5   D5  E5  D5
Cocaine

#6t1##6t2#E|-----------------------------------------------------|
B|-----------------------------------------------------|
G|-1-1-0-1----0h1-1h2----------------------------------|
D|-2-2-0-2----2---0------------------------------------|
A|-----------------------------------------------------|
E|-----------------------------------------------------|#/6t2##/6t1#

#7t1##7t2#E|-----------------------------------------------------|
B|-----------------------------------------------------|
G|-----------------------------------------------------|
D|---------0-------------------------------------------|
A|-0h2-2-2---------------------------------------------|
E|-----------------------------------------------------|#/7t2##/7t1#

           E5    D5  E5
When your day is    done 
     D5
And you wanna run
   E5   D5  E5  D5
Cocaine

#8t1##8t2#E|-----------------------------------------------------|
B|-----------------------------------------------------|
G|-7/9\7~~---------------------------------------------|
D|-7/9\7~~---------------------------------------------|
A|-----------------------------------------------------|
E|-----------------------------------------------------|#/8t2##/8t1#

[Refrão]

           E5
She don't lie
           D5
She don't lie
           C5  B5
She don't lie

   E5   D5  E5  D5
Cocaine

( E5  D5  E5  D5 )

#9t1##9t2#E|-----------------------------------------------------|
B|-----------------------------------------------------|
G|-1-1-0-1----0h1-1h2----------------------------------|
D|-2-2-0-2----2---0------------------------------------|
A|-----------------------------------------------------|
E|-----------------------------------------------------|#/9t2##/9t1#

[Solo]

#10t1##10t2#E|-----------------------------------------------------|
B|-----------------------------------------------------|
G|----------12b----------------------------------------|
D|-12-14~--------14p12-14--12-14--14--12--14~----------|
A|-----------------------------------------------------|
E|-----------------------------------------------------|#/10t2##/10t1#

#11t1##11t2#E|-----------------------------------------------------|
B|-----------------------------------------------------|
G|-12--12b---------------------------------------------|
D|----------14\----------------------------------------|
A|-----------------------------------------------------|
E|-----------------------------------------------------|#/11t2##/11t1#

#12t1##12t2#E|-----------------------------------------------------|
B|-12-----12-----12-------12--------12-----12--12------|
G|-14b16--14b16--14b16----14b16----b16r14--14--14------|
D|-----------------------------------------------------|
A|-----------------------------------------------------|
E|-----------------------------------------------------|#/12t2##/12t1#

#13t1##13t2#E|-----------------------------------------------------|
B|-12--------------------------------------------------|
G|----14b16-12-----------------------------------------|
D|-------------14-14-12-14--14--12~--------------------|
A|-----------------------------------------------------|
E|-----------------------------------------------------|#/13t2##/13t1#

#14t1##14t2#E|----------12-----------------------------------------|
B|-------12----15-12-----------------------------------|
G|-14b16-------------14b16-14-12----14b16--------------|
D|-------------------------------14--------------------|
A|-----------------------------------------------------|
E|-----------------------------------------------------|#/14t2##/14t1#

#15t1##15t2#E|-----------------------------------------------------|
B|-----------------------------------------------------|
G|-12--------------------------------------------------|
D|----14-14--12----14----------------------------------|
A|-----------------------------------------------------|
E|-----------------------------------------------------|#/15t2##/15t1#

#16t1##16t2#E|-----------------------------------------------------|
B|-15---------15---------------------------------------|
G|----14b16--b16b14-12------12-------------------------|
D|---------------------14------12----------------------|
A|-----------------------------------------------------|
E|-----------------------------------------------------|#/16t2##/16t1#

#17t1##17t2#E|-----------------------------------------------------|
B|-------12--------------------------------------------|
G|-------12-----------12b------------------------------|
D|-14-14----14--12-14----------------------------------|
A|-----------------------------------------------------|
E|-----------------------------------------------------|#/17t2##/17t1#

#18t1##18t2#E|----------12-----------------------------------------|
B|-------12----15-12----------------------12-----------|
G|-14b16-------------14b16-14-12----14b16--------------|
D|-------------------------------14--------------------|
A|-----------------------------------------------------|
E|-----------------------------------------------------|#/18t2##/18t1#

#19t1##19t2#E|-----------------------------------------------------|
B|-15------15---15---15---15---------------------------|
G|-14b16--b16--b16--b16--b16r14----12------------------|
D|------------------------------------14~--------------|
A|-----------------------------------------------------|
E|-----------------------------------------------------|#/19t2##/19t1#

#20t1##20t2#E|-12--------------------------------------------------|
B|----15--15------15-----12------12b-------------------|
G|--------14b16--b16r14--12------12b-------------------|
D|--------------------------14--------14p12-14~--------|
A|-----------------------------------------------------|
E|-----------------------------------------------------|#/20t2##/20t1#

#21t1##21t2#E|-----------------------------------------------------|
B|----------12b----12b---------------------------------|
G|----------12b----12b---------------------------------|
D|-12-14-14--------------14~---------------------------|
A|-----------------------------------------------------|
E|-----------------------------------------------------|#/21t2##/21t1#

#22t1##22t2#E|-----------------------------------------------------|
B|----------12b---12---12---12---12--------------------|
G|----------12b---12---12---12---12--------------------|
D|-------12---------------------------14p12-14~--------|
A|-12h14-----------------------------------------------|
E|-----------------------------------------------------|#/22t2##/22t1#

[Terceira Estrofe]

          E5     D5  E5
If your thing is    gone
     D5
And you wanna ride on
   E5   D5  E5  D5
Cocaine

#23t1##23t2#E|-----------------------------------------------------|
B|-----------------------------------------------------|
G|-1-1-0-1----0h1-1h2----------------------------------|
D|-2-2-0-2----2---0-------------0h2--------------------|
A|------------------------0h2-2------------------------|
E|-----------------------------------------------------|#/23t2##/23t1#

          E5   D5  E5
Don't forget this fact
     D5
You can't get it back
   E5   D5  E5  D5
Cocaine

#24t1##24t2#E|-----------------------------------------------------|
B|-----------------------------------------------------|
G|-1-1-0-1----1---1h2----------------------------------|
D|-2-2-0-2----2---0------------------------------------|
A|-----------------------------------------------------|
E|-----------------------------------------------------|#/24t2##/24t1#

[Refrão]

           E5
She don't lie
           D5
She don't lie
           C5  B5
She don't lie

   E5   D5  E5  D5
Cocaine

( E5  D5  E5  D5 )

#25t1##25t2#E|-----------------------------------------------------|
B|-----------------------------------------------------|
G|-1-1-0-1------------2--------------------------------|
D|-2-2-0-2--------0h2-0--------------------------------|
A|------------0h2--------------------------------------|
E|-----------------------------------------------------|#/25t2##/25t1#

#26t1##26t2#E|-----------------------------------------------------|
B|-----------------------------------------------------|
G|-1-1-0-1----1---1h2----------------------------------|
D|-2-2-0-2----2---0------------------------------------|
A|-----------------------------------------------------|
E|-----------------------------------------------------|#/26t2##/26t1#

           E5
She don't lie
           D5
She don't lie
           C5  B5
She don't lie

   E5   D5  E5  D5
Cocaine

#27t1##27t2#E|-----------------------------------------------------|
B|-----------------------------------------------------|
G|-4-4-2-4------------2--------------------------------|
D|-2-2-0-2--------0h2-0--------------------------------|
A|------------0h2--------------------------------------|
E|-----------------------------------------------------|#/27t2##/27t1#

#28t1##28t2#E|-----------------------------------------------------|
B|-----------------------------------------------------|
G|-1-1-0-1----0h1-1h2----------------------------------|
D|-2-2-0-2----2---0------------------------------------|
A|-----------------------------------------------------|
E|-----------------------------------------------------|#/28t2##/28t1#

[Final] E5  D5  E5  D5
Composição: J.J. CaleColaboração e revisão: Vinícius Dias
Videoaula COCAINE (aula de guitarra)