busca

Carrie

Europe

Tom: G
Solo:

     \ /
E|-----------17--19~------------------------|
B|-17---h20---------------------------------|
G|------------------------------------------|
D|------------------------------------------|
A|------------------------------------------|
E|------------------------------------------|

E|-12--15--12h15p12~------------------------|
B|---------------------12h15p12~------------|
G|------------------------------------------|
D|------------------------------------------|
A|------------------------------------------|
E|------------------------------------------|

E|--------------------------15--------------|
B|-13-12h13p12-----------------15-----------|
G|-------------14-12-14b16--------b16r14-12-|
D|------------------------------------------|
A|------------------------------------------|
E|------------------------------------------|

E|------------------------------------------|
B|------------------------------------------|
G|----12~-----------------------------------|
D|-14-------12/14--12~---12/14-12-----------|
A|--------------------------------\12-10-12~|
E|------------------------------------------|

                      \ / 
E|------------------------------------------|
B|------------------------------------------|
G|------------------------------------------|
D|-------10-9-7\-5~--7---/9h12p10p9\7-------|
A|----10------------------------------------|
E|-12---------------------------------------|

E|------------------------------------------|
B|-----------------10---------12~-----------|
G|-11-9h11p9----------12-11-9---------------|
D|-----------12-10--------------------------|
A|------------------------------------------|
E|------------------------------------------|

E|-12---------------------------------------|
B|----12h15p12-------17b20r17~--------------|
G|-------------14-12------------------------|
D|------------------------------------------|
A|------------------------------------------|
E|------------------------------------------|

E|----15-17~---17b19r17--17~---15h17p15\14--|
B|-17---------------------------------------|
G|------------------------------------------|
D|------------------------------------------|
A|------------------------------------------|
E|------------------------------------------|

E|------------------------------------------|
B|-17-15~-----------------------------------|
G|------------------------------------------|
D|------------------------------------------|
A|------------------------------------------|
E|------------------------------------------|

Clipes

Cifra Club Pro

Aproveite o Cifra Club com benefícios exclusivos e sem anúncios
Cifra Club Pro
Aproveite o Cifra Club com benefícios exclusivos e sem anúncios