Carrie

Europe

Tom: G
Solo:

#1t1#     \ /
#1t2#E|-----------17--19~------------------------|
B|-17---h20---------------------------------|
G|------------------------------------------|
D|------------------------------------------|
A|------------------------------------------|
E|------------------------------------------|#/1t2##/1t1#

#2t1##2t2#E|-12--15--12h15p12~------------------------|
B|---------------------12h15p12~------------|
G|------------------------------------------|
D|------------------------------------------|
A|------------------------------------------|
E|------------------------------------------|#/2t2##/2t1#

#3t1##3t2#E|--------------------------15--------------|
B|-13-12h13p12-----------------15-----------|
G|-------------14-12-14b16--------b16r14-12-|
D|------------------------------------------|
A|------------------------------------------|
E|------------------------------------------|#/3t2##/3t1#

#4t1##4t2#E|------------------------------------------|
B|------------------------------------------|
G|----12~-----------------------------------|
D|-14-------12/14--12~---12/14-12-----------|
A|--------------------------------\12-10-12~|
E|------------------------------------------|#/4t2##/4t1#

#5t1#                      \ / 
#5t2#E|------------------------------------------|
B|------------------------------------------|
G|------------------------------------------|
D|-------10-9-7\-5~--7---/9h12p10p9\7-------|
A|----10------------------------------------|
E|-12---------------------------------------|#/5t2##/5t1#

#6t1##6t2#E|------------------------------------------|
B|-----------------10---------12~-----------|
G|-11-9h11p9----------12-11-9---------------|
D|-----------12-10--------------------------|
A|------------------------------------------|
E|------------------------------------------|#/6t2##/6t1#

#7t1##7t2#E|-12---------------------------------------|
B|----12h15p12-------17b20r17~--------------|
G|-------------14-12------------------------|
D|------------------------------------------|
A|------------------------------------------|
E|------------------------------------------|#/7t2##/7t1#

#8t1##8t2#E|----15-17~---17b19r17--17~---15h17p15\14--|
B|-17---------------------------------------|
G|------------------------------------------|
D|------------------------------------------|
A|------------------------------------------|
E|------------------------------------------|#/8t2##/8t1#

#9t1##9t2#E|------------------------------------------|
B|-17-15~-----------------------------------|
G|------------------------------------------|
D|------------------------------------------|
A|------------------------------------------|
E|------------------------------------------|#/9t2##/9t1#
Composição: Joey Tempest / Mic MichaeliColaboração e revisão: Vinícius DiasGuilherme Franciscani
Videoaula Carrie (How to Play - Guitar Solo Lesson)