Cherokee Solo

Europe

Tom: G
=-=-= Legend =-=-=
~  - Let ring
sl - Slide late to required note
h  - Hammer on
hl - Hammer on late
p  - Pull off
pl - Pull off late
 - Harmonics/Vibrate
{} - Played Louder
() - Played Softer
[] - Continued Note from Last Bar
b* - Bend to required note
r* - Bend Return to required note
#*#- If you wish, play the required fill here.
§  - Heavy vibrate.

#1t1##1t2#e|-------------------14------12--14--15--14h15p14p12------------------|
B|----------------------------------------------------15---13---------|
G|-14b16-16r14-------------------------------------------------16---14|
D|--------------17----------------------------------------------------|
A|--------------------------------------------------------------------|
E|--------------------------------------------------------------------|#/1t2##/1t1#

#2t1##2t2#e|-------------------14------14--15--17--15h17p15p14----------14b15r14---------|
B|----------------------------------------------------15----------------17--17-|
G|-14b16-16r14-----------------------------------------------------------------|
D|--------------17-------------------------------------------------------------|
A|-----------------------------------------------------------------------------|
E|-----------------------------------------------------------------------------|#/2t2##/2t1#

#3t1##3t2#e|----15-------------------------------------------------|
B|-17----17-15-17---15---------15-17---------------------|
G|---------------------16-14-16------14p16r14-----14~~~~-|
D|--------------------------------------------17---------|
A|-------------------------------------------------------|
E|-------------------------------------------------------|#/3t2##/3t1#

#4t1##4t2#e|------------------14--14h15-17p15p14-------14-----14------14h15h17p15p14--------|
B|-14b16-16r14-------------------------17-15----15------17-----------------17--15-|
G|--------------17----------------------------------------------------------------|
D|--------------------------------------------------------------------------------|
A|--------------------------------------------------------------------------------|
E|--------------------------------------------------------------------------------|#/4t2##/4t1#


#5t1##5t2#--------------------------------------------------------------------------------------------#/5t2##/5t1#


This part is actually a synth solo, but I tabbed it anyway. =)

#6t1##6t2#e|----------------------------------------------------------------------------|
B|------------------------------------------------------12--------------------|
G|-12--11--9------9-------------------9--12--11--9--11------11-9--------------|
D|------------12--------------10--12-----------------------------12-----------|
A|----------------------------------------------------------------------------|
E|----------------------------------------------------------------------------|#/6t2##/6t1#


#7t1##7t2#e|---------------------------------------------------------------------10-|
B|--------------------------------------10----------10--13---------13-----|
G|--------11--12--11------9------9--12----------11----------9--12---------|
D|-9--12--------------12-----10-------------12----------------------------|
A|------------------------------------------------------------------------|
E|------------------------------------------------------------------------|#/7t2##/7t1#


#8t1##8t2#e|-----10--14--14h15-12h15-10h15----15-------------------------|
B|-------------------------------13-------15----15----15----15-|
G|-12----------------------------------14----12----11----------|
D|-------------------------------------------------------14----|
A|-------------------------------------------------------------|
E|-------------------------------------------------------------|#/8t2##/8t1#


#9t1##9t2#e|-------------------------------------------------------------------------|
B|-13p12p10-13p12p10-13p12p10-13p12p10-13p12p10-13p12p10-13p12p10-13p12p10-|
G|-------------------------------------------------------------------------|
D|-------------------------------------------------------------------------|
A|-------------------------------------------------------------------------|
E|-------------------------------------------------------------------------|#/9t2##/9t1#

#10t1##10t2#e|-------------------------------------------------------------------------|
B|-------------------------------------------------------------------------|
G|-12p10p8-12p10p8-12p10p8-12p10p8-12p10p8-12p10p8-12p10p8-12p10p8-12p10p8-|
D|-------------------------------------------------------------------------|
A|-------------------------------------------------------------------------|
E|-------------------------------------------------------------------------|#/10t2##/10t1#

#11t1##11t2#e|-------------------------------------------------------------------------|
B|-13p12p10-13p12p10-13p12p10-13p12p10-13p12p10-13p12p10-13p12p10-13p12p10-|
G|-------------------------------------------------------------------------|
D|-------------------------------------------------------------------------|
A|-------------------------------------------------------------------------|
E|-------------------------------------------------------------------------|#/11t2##/11t1#

#12t1##12t2#e|-------------------------------------------------------------------------|
B|-15p13p12-15p13p12-15p13p12-15p13p12-15p13p12-15p13p12-15p13p12-15p13p12-|
G|-------------------------------------------------------------------------|
D|-------------------------------------------------------------------------|
A|-------------------------------------------------------------------------|
E|-------------------------------------------------------------------------|#/12t2##/12t1#

#13t1##13t2#e|-------------------------------------------------------------------------|
B|-13p12p10-13p12p10-13p12p10-13p12p10-13p12p10-13p12p10-13p12p10-13p12p10-|
G|-------------------------------------------------------------------------|
D|-------------------------------------------------------------------------|
A|-------------------------------------------------------------------------|
E|-------------------------------------------------------------------------|#/13t2##/13t1#

#14t1##14t2#e|-------------------------------------------------------------------------|
B|-------------------------------------------------------------------------|
G|-12p10p8-12p10p8-12p10p8-12p10p8-12p10p8-12p10p8-12p10p8-12p10p8-12p10p8-|
D|-------------------------------------------------------------------------|
A|-------------------------------------------------------------------------|
E|-------------------------------------------------------------------------|#/14t2##/14t1#

#15t1##15t2#e|-------------------------------------------------------------------------|
B|-13p12p10-13p12p10-13p12p10-13p12p10-13p12p10-13p12p10-13p12p10-13p12p10-|
G|-------------------------------------------------------------------------|
D|-------------------------------------------------------------------------|
A|-------------------------------------------------------------------------|
E|-------------------------------------------------------------------------|#/15t2##/15t1#

#16t1##16t2#e|-------17~~~~-22§§§§§§---------------------------------------------------|
B|-15~~~-------------------------------------------------------------------|
G|-------------------------------------------------------------------------|
D|-------------------------------------------------------------------------|
A|-------------------------------------------------------------------------|
E|-------------------------------------------------------------------------|#/16t2##/16t1#


There are probably some minor mistakes during the fast parts. If you think something 
be changed, drop me a mail at *

Thanks to Alessandro Corazzi. 
Composição: A. Pessis / Beau Hill / Eddie Meduza / Eric Martin / Europe / Fiona / Gary Moore / Gilmour / Haugland / Ian Haugland / Joey Tempest / Joey Tempest ~ / John Levem / John Leven / John Norum / Leven / Marcelinho TDP / Marcello / Mic Micaeli / Mic Micaelli / Mic Michaeli / Michaeli / Tobias Lindell / WatersColaboração e revisão: