busca

Forever Travelling

Europe

Tom: A
This is my first tab...great song by a great band. I hope you'll enjoy it!!

Intro x2
E|-----------------------------------------|
B|-----------------------------------------|
G|---------------------7--7--7-------------|
D|---7--9--7--9--7--9--7--7--7--5--5--7--2-|
A|-7--9--7--9--7--9--5--5--5--5--5--7--2-|
E|---5--7--5--7--5--7-----------3--3--5--0-|


Verse x4
E|------------------------------------|
B|---------5----------0-----------0---|
G|-----------------2----2-------2---2-|
D|------6-------2------------2--------|
A|---4--------------------------------|
E|------------------------------------|


Pre-Chorus
E|-------------------|
B|-------------------|
G|---6--11--6--7-----|
D|---7--12--7--9-----|
A|-------------------|
E|-------------------|


Chorus
E|------------------------------------------------------------------|
B|------------------------------------------------------------------|
G|------------------7---------------------------------7--7--7-------|
D|---5----7----9----7----5----2-----7--9--7--9--7--9--7--7--7--5--5-|
A|---5----7----9----5----5----2-----7--9--7--9--7--9--5--5--5--5--5-|
E|---3----5----7---------3----0-----5--7--5--7--5--7-----------3--3-|

E|------------------------------------------------------------------------|
B|------------------------------------------------------------------------|
G|------------------7---------------------------------7--7--7-------------|
D|---5----7----9----7----5----2-----7--9--7--9--7--9--7--7--7--5--5--7--2-|
A|---5----7----9----5----5----2-----7--9--7--9--7--9--5--5--5--5--5--7--2-|
E|---3----5----7---------3----0-----5--7--5--7--5--7-----------3--3--5--0-|


Verse x4

Pre-Chorus

Chorus
E|------------------------------------------------------------------------|
B|------------------------------------------------------------------------|
G|---------------------7------------------------------------7--7--7-------|
D|---5-----7-----9-----7-----5-----2------7--9--7--9--7--9--7--7--7--5--5-|
A|---5-----7-----9-----5-----5-----2------7--9--7--9--7--9--5--5--5--5--5-|
E|---3-----5-----7-----------3-----0------5--7--5--7--5--7-----------3--3-|

E|-----------------------------------------|
B|-----------------------------------------|
G|---------------------7-----------------7-|
D|---5-----7-----9-----7-----5-----2-----7-|
A|---5-----7-----9-----5-----5-----2-----5-|
E|---3-----5-----7-----------3-----0-------|


Pre-Solo
E|--------------------------------------------------------------------------|
B|---------------------6-----------6----------------------------------------|
G|---------7-----------------------------------7-----------7-----------9----|
D|------7-----------7-----------7-----------7-----------7-----------9-------|
A|---5-----------5-----------5-----------5-----------5-----------7----------|
E|--------------------------------------------------------------------------|

E|--------------------------------------------------------|
B|--------------------------------------------------------|
G|---------9--------9--9--9--9--9--9--9--9--9--9--9--9--9-|
D|------9-----------9--9--9--9--9--9--9--9--9--9--9--9--9-|
A|---7--------------7--7--7--7--7--7--7--7--7--7--7--7--7-|
E|--------------------------------------------------------|


Solo (Guitar 2 plays chorus during the solo)
E|--------------------------------------------------------------------------|
B|------------------15-17b19r17b19----19/20-17------------------------------|
G|---16----14-16-18-------------------------------18b20r18-16\14-16---------|
D|--------------------------------------------------------------------------|
A|--------------------------------------------------------------------------|
E|--------------------------------------------------------------------------|

E|---------------------------------------16h19-17----15----------------------|
B|------------------15-17b19r17b19----17----------------17-15----------------|
G|---16----14-16-18-------------------------------------------16-14-12-------|
D|---------------------------------------------------------------------14-12-|
A|---------------------------------------------------------------------------|
E|---------------------------------------------------------------------------|

E|----------------|
B|----------------|
G|------------14b-|
D|----------------|
A|---14-12-14-----|
E|----------------|


Pre-Chorus
E|--------------|
B|--------------|
G|------7-------|
D|---7--7--7--9-|
A |-7--5--7--9-|
E|---5-----5--7-|

Chorus

Outro
E|--------------------------------------|
B|--------------------------------------|
G|---------------------7--7--7----------|
D|---7--9--7--9--7--9--7--7--7--5--7--2-|
A |-7--9--7--9--7--9--5--5--5--5--7--2-|
E|---5--7--5--7--5--7-----------3--5--0-|

Clipes

Cifra Club Pro

Aproveite o Cifra Club com benefícios exclusivos e sem anúncios
Cifra Club Pro
Aproveite o Cifra Club com benefícios exclusivos e sem anúncios