busca

Halfway to Heaven

Europe

Tom: E
This is a great song that i am really working hard on. Please rate after
looking. I'll try to update it as soon as possible...

Intro: (Echo effect)
e: -----------------0-0-0--3-3-3-3----
B: -3-3-3--2-2-2-2--0-0-0--3-3-3-3----
G: -2-2-2--2-2-2-2--------------------
D: -----------------------------------
A: -----------------------------------
E: -----------------------------------
(solo Bit)

                                             (Really fast part i cant figure out)
e: ------------------------------------------------------------------------------
B: -3/7--7/10/5--5/7--5/7--5--4--0--7--9--12b------------------------------------
G: ------------------------------------------------------------------------------
D: ------------------------------------------------------------------------------
A: ------------------------------------------------------------------------------
E: ------------------------------------------------------------------------------

e: ------------------------------------------------------------------------------
B: -3/7--7/10/5--5/8--5/8--5--4--5--3--0--5/10--3--------------------------------
G: ------------------------------------------------------------------------------
D: ------------------------------------------------------------------------------
A: ------------------------------------------------------------------------------
E: ------------------------------------------------------------------------------
(Repeat a few times)

e: -----------------3-3-3--5-5-5-5----
B: -3-3-3--2-2-2-2--3-3-3--5-5-5-5----
G: -2-2-2--2-2-2-2--------------------
D: -----------------------------------
A: -----------------------------------
E: -----------------------------------
(Repeat a few times)

e: -2-----------3----
B: -3-----------3----
G: -2---2-------0----
D: -----0---2---0----
A: -----0---0---2----
E: ---------0---3----

Verse:
(Repeat a few times)

e: -2-------3--------
B: -3-------3--------
G: -2---2---0---2----
D: -----0---0---0----
A: -----0---2---0----
E: ---------3--------

Chorus:
(Repeat a few times)

e: -2-----------3----
B: -3-----------3----
G: -2---2-------0----
D: -----0---2---0----
A: -----0---0---2----
E: ---------0---3----

Clipes

Cifra Club Pro

Aproveite o Cifra Club com benefícios exclusivos e sem anúncios
Cifra Club Pro
Aproveite o Cifra Club com benefícios exclusivos e sem anúncios