busca

Heart Of Stone Intro

Europe

Tom: G
Heart Of Stone(Norum)


--------------------------------------------------------|
--------------------------------------------------------|
----------9----7--------------9----7-------77-----------|
-77-99----7-00-5-7---77-99----7-00-5---777-55-77-99-----| 2 X
-55-77-----------5---55-77-------------555----55-77-----|
--------------------------------------------------------|

--------------------------------------------------------|
--------------------------------------------------------|
--------------------------------------------------------|
------2-------------------------------------------------|
--0-3---3-----------------------------------------------|
--------------------------------------------------------|

Clipes

Cifra Club Pro

Aproveite o Cifra Club com benefícios exclusivos e sem anúncios
Cifra Club Pro
Aproveite o Cifra Club com benefícios exclusivos e sem anúncios