In The Future To Come Intro

Europe

Tom: G


                in the future to come intro
                (thempest)


#1t1##1t2#e|----------------------------------------|
b|----------------------------------------|
g|-------------0-1-0--0-------------------|2x
d|---0-1---3--------3---3-1-0-------------|
a|-3-----3---3----------------3v--1-1-0-0-|
e|----------------------------------------|#/1t2##/1t1#

#2t1#and then...
#2t2#|----------------|
|----------------|
|-5------------5-|
|-5---6--8--5--5-|
|-3---6--8--5--3-|
|-----4--6--3----|#/2t2##/2t1#
Composição: A. Pessis / Beau Hill / Eddie Meduza / Eric Martin / Europe / Fiona / Gary Moore / Gilmour / Haugland / Ian Haugland / Joey Tempest / Joey Tempest ~ / John Levem / John Leven / John Norum / Leven / Marcelinho TDP / Marcello / Mic Micaeli / Mic Micaelli / Mic Michaeli / Michaeli / Tobias Lindell / WatersColaboração e revisão: