Little Bit Of Lovin'

Europe

A
123
X02220
B
234
X24442
C
123
X32010
D
123
XX0232
D/C#
1234
X40232
D/G
1234
3XX232
E
123
022100
Tom: G
Cool song, although the riff is pretty obvious. Anyway it rocks pretty 
good. 
Enjoy!

#1t1#Intro:
    E     A         E
#1t2#e |-------------------------|
B |-------------------------|
G |-------2--2-2------------|
D |-2-2---2--2-2----2-------|
A |-2-2---0--0-0----2-------|
E |-0-0-3--------3--0-------|#/1t2##/1t1#

Chorus:
    E       A            E   C   D        E   D  A
                                         <----*----->
#2t1##2t2#e |-------------------------------------------------|   * The first time
B |-------------------------------------------3-----|   this riff comes up
G |---------2--2-2-----------5---7------------2--2--|   play this 1st time.
D |-2-------2--2-2-------2---5---7------2-2-2-0--2--|   2nd time play the
A |-2----2--0--0-0--2----2---3---5-0h-2---2-2----0--|   lick below.
E |-0--3--------------3--0----------------0-0-------|#/2t2##/2t1#

                                 A
  <------2nd time, intro only------->
#3t1##3t2#e |---------------------------------|
B |---------------------------------|
G |---------0--------------------2--|
D |-2-2-0-----2-0---2-0----------2--|
A |-------2-------2----2-0-------0--|
E |------------------------3-2-0----|#/3t2##/3t1#



Verse:
     E D E              E D E   D    D/C#  D/G     E D E
                               <----------2nd time 2 x---->
                                                 <--1st--->
#4t1##4t2#e |-------------------------------------------------------|
B |--9-7-9--------------9-7-9------2-----2-----2---9-7-9--|
G |--9-7-9--------------9-7-9-----3----3-----3-----9-7-9--|
D |--7-5-7-------0h-2---7-5-7---0------------------7-5-7--|
A |---------0h-2---------------------4--------------------|
E |----------------------------------------3-----0--------|#/4t2##/4t1#

    B
   <------2nd----->
#5t1##5t2#e |----------------|
B |----------------|
G |-4-4-4----------|
D |-4-4-4----------|
A |-2-2-2----------|
E |----------------|#/5t2##/5t1#


Bridge:

E    D                             A               B
Ohh, You gotta give me some lovin',yeah. ...
good... 

#6t1#Chords:
#6t2#-------#/6t2##/6t1#
E 0221xx or 022xxx or x799xx
A x0222x or x022xx
D xx023x or x577xx
C x355xx
B x244xx
D/C# x4032x
D/G  3x032x
open position E xxx450 and D xx0232


#7t1#Little Bit Of Lovin'
#7t2#--------------------#/7t2##/7t1#

Ohh, gotta give me ....

[Riff 1]

[/w chorus riff]
(We sing it)
Woah-oh, woah-oh...

[/w riff 2]
Just like a gypsy I come ...
Composição: Colaboração e revisão: Ivan Neto