More Than Meets The Eye

Europe

A
123
X02220
A/C#
1234
X4X255
A/D
123
XX0655
A5
12
X022XX
B
234
X24442
B5
134
X244XX
D
123
XX0232
D5
134
X577XX
E
123
022100
E/Ab
1234
4X245X
E5
12
022XXX
F#
234
244322
F#5
134
244XXX
G#
234
431114
Tom: G
 Moderate Rock Q=95
  F# G#    D     A  E     D5 A/D         D5 A/D     E5   F#5     E/Ab
 4/4
  Gtrs I, V
   E. S +E  E +S  E. Q     E. S Q  H      E. S Q  Q  Q    E E E E E E E E
#1t1##1t2#|----------------------||--------------|---------------|-----------------|
|----------------------||--------------|---------------|-----------------|
|----------------------||-7--6---------|-7--6----------|-----------------|
|----------------------||-7--7---------|-7--7-------9--|-----------------|
|----------5-(5)-0--7--||-5--5---------|-5--5-------7--|-4---4---7---7---|
|-2--4-(4)-------------||--------------|---------------|-2---2---4---4---|
|#/1t2##/1t1#
| Gtr IV
| E. S +E  E +S  E. Q     E. S Q  H      E. S H     Q    H       H
#2t1##2t2#|----------------------||--------------|---------------|-----------------|
|-3--5-(5)-7-(7)-5--9--||-7--5---------|-7--5-------0--|-----------------|
|-2--4-(4)-7-(7)-7--9--||-7--7---------|-7--7-------1--|-2---------------|
|-4--6-(6)-7-(7)-7--9--||-7--7---------|-7--7-------2--|-4-------6-------|
|----------------------||--------------|---------------|-4-------7-------|
|----------------------||--------------|---------------|---------7-------|#/2t2##/2t1#


  A5                D5 A/D         D5 A/D     E5
  E E E E E E E E   E. S Q  H      E. S Q  Q  Q
#3t1##3t2#|-----------------|--------------|---------------|
|-----------------|--------------|---------------|
|-----------------|-7--6---------|-7--6----------|
|-----------------|-7--7---------|-7--7-------9--|
|-7---7-----------|-5--5---------|-5--5-------7--|
|-5---5---5-3-2-0-|--------------|---------------|
|#/3t2##/3t1#
#4t1#| W                 E. S Q  H      E. S H     Q
#4t2#|-----------------|--------------|---------------|
|-----------------|-7--5---------|-7--5-------0--|
|-2---------------|-7--7---------|-7--7-------1--|
|-2---------------|-7--7---------|-7--7-------2--|
|-4---------------|--------------|---------------|
|-----------------|--------------|---------------|#/4t2##/4t1#


  F#5     E/Ab      A5
   E E E E E E E E   E E E E E E E E
#5t1##5t2#|-----------------|-----------------||
|-----------------|-----------------||
|-----------------|-----------------||
|-----------------|---------7-5-4-2-||
|-4---4---7---7---|-7---7-----------||
|-2---2---4---4---|-5---5-----------||
|#/5t2##/5t1#
#6t1#| H       H         W
#6t2#|-----------------|-----------------||
|-----------------|-----------------||
|-2---------------|-2---------------||
|-4-------6-------|-2---------------||
|-4-------7-------|-4---------------||
|---------7-------|-----------------||#/6t2##/6t1#


 Pre-Chorus
  $
  B5                       A/C#
   E E E E  E  E  E     E   E E E E  E  E  E     E
#7t1##7t2#|------------------------|------------------------|
|------------------------|------------------------|
|------------------------|------------------------|
|-4---4----4-----4-------|-7---7----7-----7-------|
|-2---2----2-----2-------|-4---4----4-----4-------|
|------------------------|------------------------|
|#/7t2##/7t1#
#8t1#| H       +E  E +S  E.     H       +E  E +S  E.
#8t2#|------------------------|-------------4-(4)-5----|
|-3-------(3)-0-(0)-3----|-5-------(5)------------|
|-2----------------------|-2----------------------|
|-0----------------------|-2----------------------|
|-2----------------------|-4----------------------|
|------------------------|------------------------|#/8t2##/8t1#
  W                        W


  D5                A/C# E5
   E E E E  E  E  S  E.   Q   Q  E E E E
#9t1##9t2#|----------------------|-----------------||
|----------------------|-----------------||
|----------------------|-----------------||
|-7---7----7--7--7--7--|-9\-----9---9----||
|-5---5----5--5--5--4--|-7\-----7---7----||
|----------------------|-----------------||
|#/9t2##/9t1#
#10t1#| H       +E  E +S  E.   Q   Q  Q   Q
#10t2#|-2-------(2)-2-(2)-0--|-----------------||
|-3-------(3)-3-(3)-2--|-5---------------||
|-2-------(2)-2-(2)-2--|-4------6---4----||
|-4-------(4)-4-(4)-2--|-6------7---7----||
|-5-------(5)-5-(5)-4--|-7------7---7----||
|----------------------|-----------------||#/10t2##/10t1#


 Chorus
  $$
  F#5  E5    A5  D5       E5        F#5  D5    A5  E5       D5 E5
  Q.   E +E  Q   E   H    E E E E   Q.   E +E  Q   E   H    Q  Q
#11t1##11t2#|------------------|--------------|------------------|-------------|
|------------------|--------------|------------------|-------------|
|------------------|--------------|------------------|-------------|
|----------------7-|-7----9---9---|------7-(7)-----9-|-9----7--9---|
|-4----2-(2)-7---5-|-5----7---7---|-4----5-(5)-7---7-|-7----5--7---|
|-2----0-(0)-5-----|--------------|-2----------5-----|-------------|
|#/11t2##/11t1#
#12t1#| Q.   E  E  E E E   H    Q   Q     Q.   E  E  E E E   H    Q  Q
#12t2#|------------------|--------------|------------------|-------------|
|------------------|--------------|------------------|-------------|
|-6----4-----6---7-|-7----4---4---|-6----2-----6---4-|-4----2--4---|
|-7----6-----7---7-|-7----7---7---|-7----4-----7---6-|-6----4--6---|
|-9----7-----7---9-|-9----7---7---|-9----5-----7---7-|-7----5--7---|
|------------------|--------------|------------------|-------------|#/12t2##/12t1#


              To Dbl. Coda                                    To Coda
   B5          A/C#          D5          E5       F# G#    D     A  E
    PM|   PM|   PM|   PM|     PM|   PM|
  E S S E S S E S S E S S   E S S E S S Q   Q    E. S +E  E +S  E. Q
#13t1##13t2#|-------------------------|--------------------|----------------------||
|-------------------------|--------------------|----------------------||
|-------------------------|--------------------|----------------------||
|-4-----4-----7-----7-----|-7-----7-----9\-----|----------------------||
|-2-2-2-2-2-2-4-4-4-4-4-4-|-5-5-5-5-5-5-7\-----|----------5-(5)-0--7--||
|-------------------------|--------------------|-2--4-(4)-------------||
|#/13t2##/13t1#
#14t1#| H           H             Q     Q     Q   Q    E. S +E  E +S  E. Q
#14t2#|-------------------------|--------------------|----------------------||
|-------------------------|-------3-----2------|-3--5-(5)-7-(7)-5--9--||
|-------------2-----------|-2-----------2------|-2--4-(4)-7-(7)-7--9--||
|-4-----------2-----------|-4-----------2------|-4--6-(6)-7-(7)-7--9--||
|-5-----------4-----------|-5------------------|----------------------||
|-7-----------------------|--------------------|----------------------||#/14t2##/14t1#
                            H           H


 2nd Verse
  D5 A/D         D5 A/D     E5   F#5     E/Ab
 4/4
   E. S Q  H      E. S Q  Q  Q    E E E E E E E E
#15t1##15t2#|--------------|---------------|-----------------|
|--------------|---------------|-----------------|
|-7--6---------|-7--6----------|-----------------|
|-7--7---------|-7--7-------9--|-----------------|
|-5--5---------|-5--5-------7--|-4---4---7---7---|
|--------------|---------------|-2---2---4---4---|
|#/15t2##/15t1#
#16t1#| E. S Q  H      E. S H     Q    H       H
#16t2#|--------------|---------------|-----------------|
|-7--5---------|-7--5-------0--|-----------------|
|-7--7---------|-7--7-------1--|-2---------------|
|-7--7---------|-7--7-------2--|-4-------6-------|
|--------------|---------------|-4-------7-------|
|--------------|---------------|---------7-------|#/16t2##/16t1#


  A5                                       D5  A/D             D5 A/D     E5
  E E E E E  E     E             E          E. S   Q    H      E. S Q  Q  Q
#17t1##17t2#|----------------------------------------|-------------------|----------------|
|----------------------------------------|-------------------|----------------|
|----------------------------------------|--7--6-------------|-7--6-----------|
|----------------------------------------|--7--7-------------|-7--7-------9---|
|-7---7----------------------------------|--5--5-------------|-5--5-------7---|
|-5---5---5--3-----2-------------0-------|-------------------|----------------|
|#/17t2##/17t1#
#18t1#| W                                         E. S   Q    H      E. S H     Q
#18t2#|----------------------------------------|-------------------|----------------|
|----------------------------------------|--7--5-------------|-7--5-------0---|
|-2--------------------------------------|--7--7-------------|-7--7-------1---|
|-2--------------------------------------|--7--7-------------|-7--7-------2---|
|-4--------------------------------------|-------------------|----------------|
|----------------------------------------|-------------------|----------------|
|#/18t2##/18t1#
|            Gtr II
|                                           ~~~
| H       E.    S  S  S  a      +S   +S     Q     +Q    H      W
#19t1##19t2#|--------------14------------------------|-------------------|----------------|
|-----------------17p14------------------|-------------------|----------------|
|-----------------------16b18==(16)r(16)p|=14----(14)\-------|----------------|
|----------------------------------------|-------------------|----------------|
|----------------------------------------|-------------------|----------------|
|----------------------------------------|-------------------|----------------|#/19t2##/19t1#


                      D.S. al Coda
  F#5     E/Ab      A5
   E E E E E E E E   E E E E E E E E
#20t1##20t2#|-----------------|-----------------||
|-----------------|-----------------||
|-----------------|-----------------||
|-----------------|---------7-5-4-2-||
|-4---4---7---7---|-7---7-----------||
|-2---2---4---4---|-5---5-----------||
|#/20t2##/20t1#
#21t1#| H       H         W
#21t2#|-----------------|-----------------||
|-----------------|-----------------||
|-2---------------|-2---------------||
|-4-------6-------|-2---------------||
|-4-------7-------|-4---------------||
|---------7-------|-----------------||#/21t2##/21t1#


 Guitar Break
  &
         F#5
  Gtr II
           ~~~~~~~~~                   ~~~~~~~~~~~~~
#22t1##22t2#                                                     |-----3-----|#/22t2##/22t1#
#23t1#   a      +Q    +S   S     +S   S  E  +E       +E   +S      +S   S
#23t2#|------------------------------------------------------------------|
|-17b19==(17)r=(17)-17b19r(17)p14-17-(17)b19==(17)r(17)b19r(17)p14-|
|------------------------------------------------------------------|
|------------------------------------------------------------------|
|------------------------------------------------------------------|
|------------------------------------------------------------------|
|#/23t2##/23t1#
| Gtrs I, V
|          Q     Q                 H
#24t1##24t2#|------------------------------------------------------------------|
|------------------------------------------------------------------|
|------------------------------------------------------------------|
|---------11-------------------------------------------------------|
|----------9-------------------------------------------------------|
|------------------------------------------------------------------|
|#/24t2##/24t1#
| Gtr IV
|          Q     Q                 H
#25t1##25t2#|------------------------------------------------------------------|
|----------7-------------------------------------------------------|
|----------6-------------------------------------------------------|
|----------7-------------------------------------------------------|
|------------------------------------------------------------------|
|------------------------------------------------------------------|#/25t2##/25t1#


#26t1#           ~~~~~~~~~                 ~~~~~~~~~                           ~~
#26t2#   |----------6-----------|  |----------6-----------|  |------6-------|#/26t2##/26t1#
#27t1#   S      +S   +S   S  S  S  S      +S   +S   S  S  S  S  S  S  S  S  S  Q
#27t2#|-17b19==(17)r(17)p14-------------------------------------------------------|
|---------------------17p14-17b19==(17)r(17)p14----14-----------------------|
|-----------------------------------------------17----17p16p14----16----14--|
|--------------------------------------------------------------16----16-----|
|---------------------------------------------------------------------------|
|---------------------------------------------------------------------------|
|#/27t2##/27t1#
#28t1#|  W
#28t2#|---------------------------------------------------------------------------|
|---------------------------------------------------------------------------|
|---------------------------------------------------------------------------|
|---------------------------------------------------------------------------|
|---------------------------------------------------------------------------|
|---------------------------------------------------------------------------|
|#/28t2##/28t1#
#29t1#|  W
#29t2#|---------------------------------------------------------------------------|
|---------------------------------------------------------------------------|
|---------------------------------------------------------------------------|
|---------------------------------------------------------------------------|
|---------------------------------------------------------------------------|
|---------------------------------------------------------------------------|#/29t2##/29t1#


                                                ~~
  E  a      +Q     S  S  S  a      +E   +T   T  Q
#30t1##30t2#|---22b24==(22)r--21-20-19-------------------------|
|--------------------------22b24==(22)r(22)p19h22--|
|--------------------------------------------------|
|--------------------------------------------------|
|--------------------------------------------------|
|--------------------------------------------------|#/30t2##/30t1#


#31t1#         T  T                 T  T        T        T        T  T              T        T
#31t2#    |-------7--------|#/31t2##/31t1#
#32t1#    S S  S  S  S  S  S  T  T  T  T  T  T  T  T  T  T  T  T  T  T  T  T  T  T  T  T  T  T  T  T
#32t2#|-/12p4h19--------------------------------------------------------------------------------------||
|----------------------12h14h19-------------------------------------------------------17p12h14--||
|----------18p14p13p11----------------------------18p11h13h18----------------18p11h13-----------||
|-------------------------------18p14p13-18p11h13----------------------11h13--------------------||
|-------------------------------------------------------------18p12p11--------------------------||
|-----------------------------------------------------------------------------------------------||#/32t2##/32t1#


 Guitar Solo
         D5     A/D
   a      +H          E  S  S      +E   +S   S
#33t1##33t2#|-----------------------14h16b17==(16)r(16)p14-|
|-17b19==(17)r\--------------------------------|
|----------------------------------------------|
|----------------------------------------------|
|----------------------------------------------|
|----------------------------------------------|
|#/33t2##/33t1#
|        Gtrs I, V
|                   PM-----------------|
|          E.   S E E E  E          E    E
#34t1##34t2#|----------------------------------------------|
|----------------------------------------------|
|----------7----6------------------------------|
|----------7----7------------------------------|
|----------5----5---5-5--5----------5----5-----|
|----------------------------------------------|
|#/34t2##/34t1#
|        Gtr IV
|          E.   S Q   H
#35t1##35t2#|----------------------------------------------|
|----------7----5------------------------------|
|----------7----7------------------------------|
|----------7----7------------------------------|
|----------------------------------------------|
|----------------------------------------------|#/35t2##/35t1#


         D5   A/D                               E5
           ~~~~
   a      +Q      E.    S  S      +E     +T   T  E  S  S
#36t1##36t2#|----------------------17-19b20==(19)r==(19)p17p16-19p17-|
|-17b19==(17)---/19--------------------------------------|
|--------------------------------------------------------|
|--------------------------------------------------------|
|--------------------------------------------------------|
|--------------------------------------------------------|
|#/36t2##/36t1#
|                    PM---------------|
|          E. S   E  E     E          E          Q
#37t1##37t2#|--------------------------------------------------------|
|--------------------------------------------------------|
|----------7--6------------------------------------------|
|----------7--7----------------------------------9-------|
|----------5--5------5-----5----------5----------7-------|
|--------------------------------------------------------|
|#/37t2##/37t1#
#38t1#|          E. S   H                              Q
#38t2#|--------------------------------------------------------|
|----------7--5----------------------------------0-------|
|----------7--7----------------------------------1-------|
|----------7--7----------------------------------2-------|
|--------------------------------------------------------|
|--------------------------------------------------------|#/38t2##/38t1#


  F#5                E/Ab
   +Q    S   S  S  S  S      +S   +S   S  S  S     +S   S
#39t1##39t2#|-(17)---------17----16b17==(16)r(16)p14---------------16-|
|----------/14----14---------------------17---------------|
|-------------------------------------------16b18r(16)----|
|---------------------------------------------------------|
|---------------------------------------------------------|
|---------------------------------------------------------|
|#/39t2##/39t1#
#40t1#|   E  E E      E     E            E      E         E
#40t2#|---------------------------------------------------------|
|---------------------------------------------------------|
|---------------------------------------------------------|
|---------------------------------------------------------|
|---4----4------------7-------------------7---------------|
|---2----2------------4-------------------4---------------|
|#/40t2##/40t1#
#41t1#|   H                 H
#41t2#|---------------------------------------------------------|
|---------------------------------------------------------|
|---2-----------------------------------------------------|
|---4-----------------6-----------------------------------|
|---4-----------------7-----------------------------------|
|---------------------7-----------------------------------|#/41t2##/41t1#


  A5
                                      ~~~~~~~
   S  S  S  S  +S   S  S  S  S  S  S  S  +Q
#42t1##42t2#|----14------------12----12--------------------|
|-14----17------------14-------14--------------|
|----------14-(14)----------14-----------------|
|---------------------------------14-----------|
|------------------------------------12-(12)---|
|----------------------------------------------|
|#/42t2##/42t1#
#43t1#|  E     E      E      E     E     E      E  E
#43t2#|----------------------------------------------|
|----------------------------------------------|
|----------------------------------------------|
|----------------------------------------------|
|--7------------7------------------------------|
|--5------------5------------5-----3------2--0-|
|#/43t2##/43t1#
#44t1#|  W
#44t2#|----------------------------------------------|
|----------------------------------------------|
|--2-------------------------------------------|
|--2-------------------------------------------|
|--4-------------------------------------------|
|----------------------------------------------|#/44t2##/44t1#


   D5    A/D                                   D5    A/D                   E5
                                                                          \2___|
                                        ~
#45t1##45t2#                                                             |----3----|#/45t2##/45t1#
#46t1#   E  S  S    +E.     +S    +E    +S  S Q      Q.       +E   E   E     E  E   +E
#46t2#|-------------------------------------------|-------------------------------------|
|-------------------------------------------|-------------------------------------|
|-----2h[4]b6r(4)b6r==(4)b6r(4)b6r(4)p2-----|-------------------------------------|
|-/4------------------------------------4---|-------------------------------------|
|-------------------------------------------|-[4]b5-----(4)-[4]-[3]---[2]-0---(0)-|
|-------------------------------------------|-------------------------------------|
|#/46t2##/46t1#
| Gtrs I, V
|                   PM--------------------|              PM---------|
|  E.    S     E    E        E     E    E E    E.   S E  E   E      E     Q
#47t1##47t2#|-------------------------------------------|-------------------------------------|
|-------------------------------------------|-------------------------------------|
|--7-----6----------------------------------|--7----6-----------------------------|
|--7-----7----------------------------------|--7----7---------------------9-------|
|--5-----5----------5--------5-----5----5-5-|--5----5----5---5------5-----7-------|
|-------------------------------------------|-------------------------------------|
|#/47t2##/47t1#
| Gtr IV
|  E.    S     Q             H                 E.   S H                   Q
#48t1##48t2#|-------------------------------------------|-------------------------------------|
|--7-----5----------------------------------|--7----5---------------------0-------|
|--7-----7----------------------------------|--7----7---------------------1-------|
|--7-----7----------------------------------|--7----7---------------------2-------|
|-------------------------------------------|-------------------------------------|
|-------------------------------------------|-------------------------------------|#/48t2##/48t1#


  F#5                        E/Ab
    E  S  S  S     +S   S  S  S S  S S +Q
#49t1##49t2#|---------------------------------------------|
|---------------------------------------------|
|-----11-13-13b14r(13)-11----11---11----------|
|-/11---------------------11----9----7-(7)\---|
|---------------------------------------------|
|---------------------------------------------|
|#/49t2##/49t1#
#50t1#|   E  E     E          E     E    E    E   E
#50t2#|---------------------------------------------|
|---------------------------------------------|
|---------------------------------------------|
|---------------------------------------------|
|---4--------4----------------7---------7-----|
|---2--------2----------------4---------4-----|
|#/50t2##/50t1#
#51t1#|   H                         H
#51t2#|---------------------------------------------|
|---------------------------------------------|
|---2-----------------------------------------|
|---4-------------------------6---------------|
|---4-------------------------7---------------|
|-----------------------------7---------------|#/51t2##/51t1#


#52t1#   A5
#52t2#   |-------7-------|#/52t2##/52t1#
#53t1#   S S  S  S S  S  S T  T  T T  T  T T  T  T  T  T  T  T  T  T  T  T  T  T  T  T  T  T  T
#53t2#|--------------------------------------------------------------10-12-14-12-10-------------|
|--------------------------------------------10-12-14-10-12-14----------------14-12-10-14-|
|----------------------------9-11-13-9-11-13----------------------------------------------|
|------------9-11-12-9-11-12--------------------------------------------------------------|
|----9-11-12------------------------------------------------------------------------------|
|-12--------------------------------------------------------------------------------------|
|#/53t2##/53t1#
#54t1#|  W
#54t2#|-----------------------------------------------------------------------------------------|
|-----------------------------------------------------------------------------------------|
|-----------------------------------------------------------------------------------------|
|-----------------------------------------------------------------------------------------|
|--7--------------------------------------------------------------------------------------|
|--5--------------------------------------------------------------------------------------|
|#/54t2##/54t1#
#55t1#|  W
#55t2#|-----------------------------------------------------------------------------------------|
|-----------------------------------------------------------------------------------------|
|--2--------------------------------------------------------------------------------------|
|--2--------------------------------------------------------------------------------------|
|--4--------------------------------------------------------------------------------------|
|-----------------------------------------------------------------------------------------|#/55t2##/55t1#


  D                                 A
  Gtr II
    ~~~                              ~~~
    H    E  S  S  S  S  S     +S     H     E  S  S  S  S  S     +S
#56t1##56t2#|---------------------------------|-------------------14h17b19r(17)-----||
|-/12---------14h15h17-17b19r(17)-|-17----------14h17-------------------||
|----------16---------------------|----------14-------------------------||
|---------------------------------|-------------------------------------||
|---------------------------------|-------------------------------------||
|---------------------------------|-------------------------------------||
|#/56t2##/56t1#
| Gtr III
|   ~~~                              ~~~
|   H    E  S  S  S  S  S     +S     H     E  S  S  S  S  S     +S
#57t1##57t2#|---------------------------------|-----------------9h10-10b12r(10)b12==||
|-----------------9h10-10b12r(10)-|-10----------10----------------------||
|--/7-------9h11------------------|-----------9-------------------------||
|---------------------------------|-------------------------------------||
|---------------------------------|-------------------------------------||
|---------------------------------|-------------------------------------||
|#/57t2##/57t1#
#58t1#|   H    E  E     E     E           +W
#58t2#|---------------------------------|-------------------------------------||
|---0-------------------5---------|-(5)---------------------------------||
|---7----7--6-----7-----6---------|-(6)---------------------------------||
|---7----9--7-----9-----7---------|-(7)---------------------------------||
|---9-----------------------------|-------------------------------------||
|---------------------------------|-------------------------------------||#/58t2##/58t1#


 Interlude
    W                                   +H.                         +E.     S
#59t1##59t2#|--17--------------------------------|-(17)------------------------(17)-------|
|------------------------------------|----------------------------------------|
|------------------------------------|----------------------------------------|
|------------------------------------|----------------------------------------|
|------------------------------------|--------------------------------------0-|
|------------------------------------|----------------------------------------|
|#/59t2##/59t1#
#60t1#|  +W                                   +W
#60t2#|-(10)-------------------------------|-(10)r----------------------------------|
|------------------------------------|----------------------------------------|
|------------------------------------|----------------------------------------|
|------------------------------------|----------------------------------------|
|------------------------------------|----------------------------------------|
|------------------------------------|----------------------------------------|
|#/60t2##/60t1#
#61t1#|   S  S S S S S S S S S S S S S S S     S   S S S S S S S S S S S   S  S S S
#61t2#|---5------5-----5-----5-4---5-4-5-4-|---5-------5-----5-----5-4-----5--4-5-4-|
|------7-----7-----7-5-----5---------|-------7-----7-----7-5-----5------------|
|--------7-----7---------------------|---------7-----7------------------------|
|------------------------------------|----------------------------------------|
|------------------------------------|----------------------------------------|
|------------------------------------|----------------------------------------|#/61t2##/61t1#


  A                                                                    B
  W                                 +H                E.     S +E    S S
#62t1##62t2#|---------------------------------|----------------------------------------|
|---------------------------------|----------------------------------------|
|---------------------------------|----------------------------------------|
|-0-------------------------------|-(0)------------------------------------|
|---------------------------------|-------------------5------4-(4)---0h2---|
|---------------------------------|----------------------------------------|
|#/62t2##/62t1#
#63t1#| W                                 +H                E.     S +E    S S
#63t2#|---------------------------------|----------------------------------------|
|---------------------------------|----------------------------------------|
|-7-------------------------------|-(7)---------------7------6-(6)---------|
|---------------------------------|----------------------------------7h9---|
|---------------------------------|----------------------------------------|
|---------------------------------|----------------------------------------|
|#/63t2##/63t1#
#64t1#| S S S S S S S S S S S S S S S S    S  S S S S S S S S  S S S  S  S S S
#64t2#|-5-----5-----5-----5-4---5-4-5-4-|--5------5-----5------5-4----5--4-5-4---|
|---7-----7-----7-5-----5---------|-----7-----7-----7-5------5-------------|
|-----7-----7---------------------|-------7-----7--------------------------|
|---------------------------------|----------------------------------------|
|---------------------------------|----------------------------------------|
|---------------------------------|----------------------------------------|#/64t2##/64t1#


                                                                        F#
  +W                                  +H.                       +E.     S
#65t1##65t2#|-----------------------------------|-------------------------------------|
|-----------------------------------|-------------------------------------|
|-----------------------------------|-------------------------------------|
|-----------------------------------|-------------------------------------|
|-(2)-------------------------------|-(2)-----------------------(2)-------|
|-----------------------------------|-----------------------------------2-|
|#/65t2##/65t1#
#66t1#| +W                                  +H.                       +E.     S
#66t2#|-----------------------------------|-------------------------------------|
|-----------------------------------|-------------------------------------|
|-----------------------------------|-------------------------------------|
|-(9)-------------------------------|-(9)-----------------------(9)-------|
|-----------------------------------|-----------------------------------9-|
|-----------------------------------|-------------------------------------|
|#/66t2##/66t1#
#67t1#|  S  S S S S S S S S S S S S S S S    S  S S S S S S S S S S S  S  S S S
#67t2#|--5------5-----5-----5-4---5-4-5-4-|--5------5-----5-----5-4----5--4-5-4-|
|-----7-----7-----7-5-----5---------|-----7-----7-----7-5-----5-----------|
|-------7-----7---------------------|-------7-----7-----------------------|
|-----------------------------------|-------------------------------------|
|-----------------------------------|-------------------------------------|
|-----------------------------------|-------------------------------------|#/67t2##/67t1#


  B                                                                 E
  W                                 +H.                       S S S S
#68t1##68t2#|---------------------------------|-------------------------------------|
|---------------------------------|-------------------------------------|
|---------------------------------|-------------------------------------|
|---------------------------------|-------------------------------------|
|-2-------------------------------|-(2)-----------------------2-0-------|
|---------------------------------|-------------------------------2-0---|
|#/68t2##/68t1#
#69t1#| W                                 +H.                       S S S S
#69t2#|---------------------------------|-------------------------------------|
|---------------------------------|-------------------------------------|
|---------------------------------|-------------------------------------|
|-9-------------------------------|-(9)-----------------------9-7-------|
|---------------------------------|-------------------------------9-7---|
|---------------------------------|-------------------------------------|
|#/69t2##/69t1#
#70t1#| S S S S S S S S S S S S S S S S    S  S S S S S S S S S S S S S S S
#70t2#|-5-----5-----5-----5-4---5-4-5-4-|--5------5-----5-----5-4---5-4-5-4---|
|---7-----7-----7-5-----5---------|-----7-----7-----7-5-----5-----------|
|-----7-----7---------------------|-------7-----7-----------------------|
|---------------------------------|-------------------------------------|
|---------------------------------|-------------------------------------|
|---------------------------------|-------------------------------------|#/70t2##/70t1#


                                                                        B
  +W                                  +H.                       +E.     S
#71t1##71t2#|-----------------------------------|--------------------------------------|
|-----------------------------------|--------------------------------------|
|-----------------------------------|--------------------------------------|
|-----------------------------------|--------------------------------------|
|-----------------------------------|-----------------------------------2--|
|-(0)-------------------------------|-(0)-----------------------(0)--------|
|#/71t2##/71t1#
#72t1#| +W                                  +H.                       +E.     S
#72t2#|-----------------------------------|--------------------------------------|
|-----------------------------------|--------------------------------------|
|-----------------------------------|--------------------------------------|
|-----------------------------------|-----------------------------------9--|
|-(7)-------------------------------|-(7)-----------------------(7)--------|
|-----------------------------------|--------------------------------------|
|#/72t2##/72t1#
#73t1#|  S  S S S S S S S S S S S S S S S    S  S S S S S S S S S S S  S  S S S
#73t2#|--5------5-----5-----5-4---5-4-5-4-|--5------5-----5-----5-4----5--4-5-4--|
|-----7-----7-----7-5-----5---------|-----7-----7-----7-5-----5------------|
|-------7-----7---------------------|-------7-----7------------------------|
|-----------------------------------|--------------------------------------|
|-----------------------------------|--------------------------------------|
|-----------------------------------|--------------------------------------|#/73t2##/73t1#


  E
  W
#74t1##74t2#|---------------------------------|
|---------------------------------|
|---------------------------------|
|---------------------------------|
|-7-------------------------------|
|---------------------------------|
|#/74t2##/74t1#
#75t1#| W
#75t2#|---------------------------------|
|---------------------------------|
|---------------------------------|
|---------------------------------|
|-7-------------------------------|
|---------------------------------|
|#/75t2##/75t1#
#76t1#| S S S S S S S S S S S S S S S S
#76t2#|-5-----5-----5-----5-4---5-4-5-4-|
|---7-----7-----7-5-----5---------|
|-----7-----7---------------------|
|---------------------------------|
|---------------------------------|
|---------------------------------|#/76t2##/76t1#


#77t1#                          D.S.S. al Dbl. Coda
#77t2#   |------6------|  |------6-------|#/77t2##/77t1#
#78t1#   S   S S  S  S S  S    S S  S  S S  Q    Q
#78t2#|--------------------------9----10-9-12\-------||
|--------9----10-9-12---10---12----------------||
|-11---9---11----------------------------------||
|----------------------------------------------||
|----------------------------------------------||
|----------------------------------------------||
|#/78t2##/78t1#
|  \1/              \1/
| +Q               +Q                +Q    Q
#79t1##79t2#|----------------------------------------------||
|----------------------------------------------||
|----------------------------------------------||
|----------------------------------------------||
|-(7)--------------(7)---------------(7)\------||
|----------------------------------------------||
|#/79t2##/79t1#
|  |------6------|  |------6-------|
|  S   S S  S  S S  S    S S  S  S S  Q    Q
#80t1##80t2#|--------4-----5-4--7----5-9--7-10-9-12--------||
|--7---5----7----------------------------------||
|----------------------------------------------||
|----------------------------------------------||
|----------------------------------------------||
|----------------------------------------------||#/80t2##/80t1#


                        Out-Chorus
  &&
  D5          E5         F#5  E5    A5  D5       E5
  Gtrs I, V
    PM|   PM|
   E S S E S S E E E E    Q.   E +E  Q   E   H    E E E E
#81t1##81t2#|---------------------||------------------|--------------|
|---------------------||------------------|--------------|
|---------------------||------------------|--------------|
|-7-----7-----9---9---||----------------7-|-7----9---9---|
|-5-5-5-5-5-5-7---7---||-4----2-(2)-7---5-|-5----7---7---|
|---------------------||-2----0-(0)-5-----|--------------|
|#/81t2##/81t1#
| Gtr IV
| Q     Q     Q   Q      Q.   E  E  E E E   H    Q   Q
#82t1##82t2#|---------------------||------------------|--------------|
|-------3-----2---0---||------------------|--------------|
|-2-----------2---2---||-6----4-----6---7-|-7----4---4---|
|-4-----------2---2---||-7----6-----7---7-|-7----7---7---|
|-5-------------------||-9----7-----7---9-|-9----7---7---|
|---------------------||------------------|--------------|#/82t2##/82t1#
  H           H


  F#5  D5    A5  E5       D5 E5
  Q.   E +E  Q   E   H    Q  Q
#83t1##83t2#|------------------|------------|
|------------------|------------|
|------------------|------------|
|------7-(7)-----9-|-9----7--9--|
|-4----5-(5)-7---7-|-7----5--7--|
|-2----------5-----|------------|
|#/83t2##/83t1#
#84t1#| Q.   E  E  E E E   H    Q  Q
#84t2#|------------------|------------|
|------------------|------------|
|-6----2-----6---4-|-4----2--4--|
|-7----4-----7---6-|-6----4--6--|
|-9----5-----7---7-|-7----5--7--|
|------------------|------------|#/84t2##/84t1#


   B5          A/C#          D5          E5
    PM|   PM|   PM|   PM|     PM|   PM|
  E S S E S S E S S E S S   E S S E S S Q   Q
#85t1##85t2#|-------------------------|--------------------|
|-------------------------|--------------------|
|-------------------------|--------------------|
|-4-----4-----7-----7-----|-7-----7-----9\-----|
|-2-2-2-2-2-2-4-4-4-4-4-4-|-5-5-5-5-5-5-7\-----|
|-------------------------|--------------------|
|#/85t2##/85t1#
#86t1#| H           H             Q     Q     Q   Q
#86t2#|-------------------------|--------------------|
|-------------------------|-------3-----2------|
|-------------2-----------|-2-----------2------|
|-4-----------2-----------|-4-----------2------|
|-5-----------4-----------|-5------------------|
|-7-----------------------|--------------------|#/86t2##/86t1#
                            H           H


  F# G#    D     A  E  F#
  E. S +E  E +S  E. E. S   +Q    Q  H
#87t1##87t2#|------------------------|---------------*|
|------------------------|---------------*|
|------------------------|---------------*|
|------------------------|---------------*|
|----------5-(5)-0--7--9-|-(9)\----------*|
|-2--4-(4)---------------|---------------*|
|#/87t2##/87t1#
#88t1#| E. S +E  E +S  E. E. S    Q    Q  H
#88t2#|------------------------|---------------*|
|-3--5-(5)-7-(7)-5--9--7-|--7------------*|
|-2--4-(4)-7-(7)-7--9--6-|--6------------*|
|-4--6-(6)-7-(7)-7--9--7-|--7------------*|
|------------------------|---------------*|
|------------------------|---------------*|#/88t2##/88t1#


#89t1#Duration Legend
#89t2#---------------#/89t2##/89t1#
W - whole; H - half; Q - quarter; E - 8th; S - 16th; T - 32nd; X - 64th; a - acciaccatura
+ - note tied to previous; . - note dotted; .. - note double dotted
Uncapitalized letters represent notes that are staccato (1/2 duration)
Irregular groupings are notated above the duration line
Duration letters will always appear directly above the note/fret number it represents the
duration for.  Duration letters with no fret number below them represent rests.  Multi-
bar rests are notated in the form Wxn, where n is the number of bars to rest for.  Low
melody durations appear below the staff

#90t1#Tablature Legend
#90t2#----------------#/90t2##/90t1#
 h   - hammer-on
 p   - pull-off
 b   - bend
 pb  - pre-bend
 r   - bend release (if no number after the r, then release immediately)
 /\  - slide into or out of (from/to "nowhere")
 s   - legato slide
 S   - shift slide
 - natural harmonic
[n]  - artificial harmonic
n(n) - tapped harmonic
 ~   - vibrato
 tr  - trill
 T   - tap
 TP  - trem. picking
 PM  - palm muting
\n/  - tremolo bar dip; n = amount to dip
 \n  - tremolo bar down
 n/  - tremolo bar up
/n\  - tremolo bar inverted dip
 =   - hold bend; also acts as connecting device for hammers/pulls
 <> - volume swell (louder/softer)
 x   - on rhythm slash represents muted slash
 o   - on rhythm slash represents single note slash

#91t1#Misc Legend
#91t2#-----------#/91t2##/91t1#
 |  - bar
||  - double bar
||o - repeat start
o|| - repeat end
*|  - double bar (ending)
 :  - bar (freetime)
 $  - Segno
 &  - Coda
Tempo markers -  = BPM(8/16=s8/s16), where s8 = swing 8ths, s16 = swing 16ths
Composição: Kee MarcelloColaboração e revisão: Otávio Maia