busca

Open Your Heart

Europe

Tom: D
  (  Bm                   D                       Em                   A                 )  2x
E|--7------7------7------10------10------10------7------7------7------5------5------5----|
B|----7------7------7-------7-------7-------7------8------8------8------5------5------5--|
G|------7------7--------------7-------7--------------9------9-------------6------6-------|
D|---------------------------------------------------------------------------------------|
A|---------------------------------------------------------------------------------------|
E|---------------------------------------------------------------------------------------|

Bm                        Bm7/A
Days filled with joy, and days filled with sorrow
Em7               A7
I don't know just what to do.
     Bm                Bm7/A
Am I happy today? Am I lonely tomorrow?
Em7                A4/7   A7
Everything depends on you.

              G       G/F#  Em         D         D7+/C#   Bm7
And I've been waiting          for the angels to knock on my door.
          G      G/F#   Em           D                     A7      G    A/G  G  A/G
I've been hoping           that everything could be like before.


Open your heart and tell me whats wrong.
Why can't yo talk like you used to do before?
I don't know if I'm weak.
I don't know if I'm strong.
Hey girl I can't cope anymore.

And I've been waiting for the angels to knock on my door.
I've been hoping that everything could be like before.


( B5  D5  G5  D5  A5 : B5  D5  G5  E5  G  A5 )

    Bm        G       D       A

E|--2------2--3-----3-2-----2-0-----0-|--2-----2-3-----3-0-----0-3-----|
B|----3---------3-------3-------2-----|----3-------3-------0-------3---|
G|------4---------4-------2-------2---|------4-------4-------0-------4-| (2x refrão)
D|------------------------------------|--------------------------------|
A|------------------------------------|--------------------------------|
E|------------------------------------|--------------------------------|


Bm   D/F#   G      D      A
Open your   heart, let me hear you
Bm      D/F#  G     Em  G       A
Make up your  mind, I   want to hear you call
Bm   D/F#   G      D            A
Open your   heart, want to come near you
    Bm      D/F#  G     Em  F#m     G    A
And make up your  mind    before we lose it all.


Maybe that time has it's own way of healing.
Maybe it dries the tears in your eyes
But never change the way that I'm feeling.
Only you can answer my cries.

And I've been waiting for the angels to knock on my door.
I've been hoping that everything could be like before.

Open your heart, let me hear you
Make up your mind, I want to hear you call
Open your heart, want to come near you
And make up your mind before we lose it all.

Clipes

Cifra Club Pro

Aproveite o Cifra Club com benefícios exclusivos e sem anúncios
Cifra Club Pro
Aproveite o Cifra Club com benefícios exclusivos e sem anúncios