Seven Doors Hotel Intro

Europe

Tom: G
                Joey Tempest
 Tabed by Tomas Javen (*)


Guitar

#1t1#Intro
#1t2#|--3--0--2-----0---------|-0------------------------|--3--0--2-----0---------|--0------0--2--0--2--|
|------------3------1--3--|-----1--3--0--1-----0----|------------3------1--3--|------3-------------|
|--------------------------|------------------2-------|--------------------------|-----------------|
|--------------------------|---------------------------|--------------------------|----------------|
|--------------------------|---------------------------|--------------------------|----------------|
|--------------------------|---------------------------|--------------------------|----------------|#/1t2##/1t1#


#2t1##2t2#|--3--0--2-----0---------|-0------------------------|--3--0--2-----0---------|--0------0--2--0--2--|
|------------3------1--3--|-----1--3--0--1-----0----|------------3------1--3--|------3-------------|
|--------------------------|------------------2-------|--------------------------|-----------------|
|--------------------------|---------------------------|--------------------------|----------------|
|--------------------------|---------------------------|--------------------------|----------------|
|--------------------------|---------------------------|--------------------------|----------------|#/2t2##/2t1#


#3t1##3t2#|----------12-------------|-----------------0--------|---------------0----------|-----0-------0-----0--------|
|--------------------------|-----------------12-------|---------------12--------|----------------------------|
|--------------------------|-----------------12-------|---------------12--------|----------------11------11--|
|--------------------------|---------------------------|--------------------------|---------12---------------|
|--------------------------|---------------------------|--------------------------|--------------------------|
|--------------------------|---------------------------|--------------------------|--------------------------|#/3t2##/3t1#

#4t1##4t2#|--3--0--2-----0---------|-0------------------------|--3--0--2-----0---------|--0------0--2--0--2--|
|------------3------1--3--|-----1--3--0--1-----0----|------------3------1--3--|------3-------------|
|--------------------------|------------------2-------|--------------------------|-----------------|
|--------------------------|---------------------------|--------------------------|----------------|
|--------------------------|---------------------------|--------------------------|----------------|
|--------------------------|---------------------------|--------------------------|----------------|#/4t2##/4t1#
#5t1# verse(didnt find out)
#5t2#|--------------------------|---------------------------|--------------------------|---------------------------|
|--------------------------|---------------------------|--------------------------|---------------------------|
|--------------------------|---------------------------|--------------------------|---------------------------|
|--------------------------|---------------------------|--------------------------|---------------------------|
|--------------------------|---------------------------|--------------------------|---------------------------|
|--------------------------|---------------------------|--------------------------|---------------------------|#/5t2##/5t1#


#6t1##6t2#|--------------------------|---------------------------|--------------------------|---------------------------|
|--------------------------|---------------------------|--------------------------|---------------------------|
|--------------------------|---------------------------|--------------------------|---------------------------|
|--------------------------|---------------------------|--------------------------|---------------------------|
|--------------------------|---------------------------|--------------------------|---------------------------|
|--------------------------|---------------------------|--------------------------|---------------------------|#/6t2##/6t1#

#7t1##7t2#|--------------------------|---------------------------|--------------------------|---------------------------|
|--------------------------|---------------------------|--------------------------|---------------------------|
|--------------------------|---------------------------|--------------------------|---------------------------|
|--------------------------|---------------------------|--------------------------|---------------------------|
|--------------------------|---------------------------|--------------------------|---------------------------|
|--------------------------|---------------------------|--------------------------|---------------------------|#/7t2##/7t1#

#8t1#mellanspel
#8t2#|--3--0--2-----0---------|-0------------------------|--3--0--2-----0---------|--0------0--2--0--2--|
|------------3------1--3--|-----1--3--0--1-----0----|------------3------1--3--|------3-------------|
|--------------------------|------------------2-------|--------------------------|-----------------|
|--------------------------|---------------------------|--------------------------|----------------|
|--------------------------|---------------------------|--------------------------|----------------|
|--------------------------|---------------------------|--------------------------|----------------|#/8t2##/8t1#


#9t1##9t2#|----------12-------------|-----------------0--------|---------------0----------|-----0-------0-----0--------|
|--------------------------|-----------------12-------|---------------12--------|----------------------------|
|--------------------------|-----------------12-------|---------------12--------|----------------11------11--|
|--------------------------|---------------------------|--------------------------|---------12---------------|
|--------------------------|---------------------------|--------------------------|--------------------------|
|--------------------------|---------------------------|--------------------------|--------------------------|#/9t2##/9t1#

#10t1#solo
#10t2#|------7--------------------|-------8-7-------7------------|-------10-8--------8--10-12----|-----10----8--|
|--8-----10-7-8-10-7--0-|--10-------8-10-----8----0--|--12--------10-12---------------|-----12-----10-----|
|----------------------------|-------------------------------|-----------------------------------|--------|
|----------------------------|-------------------------------|-----------------------------------|--------|
|----------------------------|-------------------------------|-----------------------------------|--------|
|----------------------------|-------------------------------|-----------------------------------|--------|#/10t2##/10t1#

#11t1##11t2#|------7--------------------|-------8-7-------7------------|-------10-8--------8--10-12----|-----10----8--|
|--8-----10-7-8-10-7--0-|--10-------8-10-----8----0--|--12--------10-12---------------|-----12-----10-----|
|----------------------------|-------------------------------|-----------------------------------|--------|
|----------------------------|-------------------------------|-----------------------------------|--------|
|----------------------------|-------------------------------|-----------------------------------|--------|
|----------------------------|-------------------------------|-----------------------------------|--------|#/11t2##/11t1#

#12t1##12t2#|------7--------------------|-------8-7-------7------------|-------10-8--------8--10-12----|-----10----8--|
|--8-----10-7-8-10-7--0-|--10-------8-10-----8----0--|--12--------10-12---------------|-----12-----10-----|
|----------------------------|-------------------------------|-----------------------------------|--------|
|----------------------------|-------------------------------|-----------------------------------|--------|
|----------------------------|-------------------------------|-----------------------------------|--------|
|----------------------------|-------------------------------|-----------------------------------|--------|#/12t2##/12t1#

#13t1##13t2#|-------15--14-----------|-14---17---15------19---|--20----19---------------|-17-----|
|--------------------------|---------------------------|--------------------------|--|
|--------------------------|---------------------------|--------------------------|--|
|--------------------------|---------------------------|--------------------------|--|
|--------------------------|---------------------------|--------------------------|--|
|--------------------------|---------------------------|--------------------------|--|#/13t2##/13t1#


#14t1##14t2#|-------15--14-----------|-14---17---15------19---|--20----19---------------|-17-----|
|--------------------------|---------------------------|--------------------------|--|
|--------------------------|---------------------------|--------------------------|--|
|--------------------------|---------------------------|--------------------------|--|
|--------------------------|---------------------------|--------------------------|--|
|--------------------------|---------------------------|--------------------------|--|#/14t2##/14t1#

#15t1##15t2#|------------------------------------|---------------------------------------|--------------------------------------|----------|
|------------------------------------|---------------------------------------|------10-8--------8-10-12---------|----10--8-----|
|------------------------------------|---------13-12---------12------------|--12-------10-12-------------------|-----12----10--|
|--------16-14----------14---------|----14---------12-14-----12--------|--------------------------------------|----------------|
|--17------------16-17------16----|---------------------------------------|--------------------------------------|-------------|
|---------------------------------14|-------------------------------14-----|--------------------------------------|------------|
|------------------------------------|---------------------------------------|--------------------------------------|----------|#/15t2##/15t1#
Composição: A. Pessis / Beau Hill / Eddie Meduza / Eric Martin / Europe / Fiona / Gary Moore / Gilmour / Haugland / Ian Haugland / Joey Tempest / Joey Tempest ~ / John Levem / John Leven / John Norum / Leven / Marcelinho TDP / Marcello / Mic Micaeli / Mic Micaelli / Mic Michaeli / Michaeli / Tobias Lindell / WatersColaboração e revisão: