Spirit of the Underdog

Europe

Tom: G
Symbols:
b   = Bend
v   = Vibration
vv  = Vide vibration
___ = keep th tone for some time
S   = Slide
h   = Harmonica

#1t1#Intro:
#1t2#E|-------------------------------------------| E-------------------------------------------|
B|-------------------------------------------| B-------------------------------------------|
G|--6-6-6--6-6-6--6-6-6--6-6-6---------------| G--6-6-6--6-6-6--6-6-6--6-6-6---------------|
D|--6-6-6--6-6-6--6-6-6--6-6-6---------------| D--6-6-6--6-6-6--6-6-6--6-6-6---------------|
A|--4-4-4--4-4-4--4-4-4--4-4-4--6-4-6--------| A--4-4-4--4-4-4--4-4-4--4-4-4---------------|
E|-------------------------------------------| E-------------------------------------------|#/1t2##/1t1#

Verse:

#2t1# Seen you round I know your face,               Watch you trie to grow up with grace
#2t2#E|-------------------------------------------|  -------------------------------------------|
B|-------------------------------------------|  --------------------------------7----------|
G|---------6-----------------4---------------|  ---------------------------7---------------|
D|-----6-------------------------------------|  -----------6------------5------------------|  
A|-4--------------------6--------------------|  -------8-----------------------------------|  
E|-----------------4-------------------------|  --6----------------------------------------|#/2t2##/2t1#

#3t1#   Seen That heart, out on your sleeve            Like it so much life,      
#3t2#E|-------------------------------------------|  --------------------------------------------|  
B|-------------------------------------------|  --------------------------------------------|  
G|----------6------------------4-------------|  --------------------------------------------|  
D|------6------------------------------------|  -----------------6-----------7--------------|  
A|-4-----------------------6-----------------|  -------------8------------7-----------------|  
E|----------------------4--------------------|  ---------6-------------5--------------------|#/3t2##/3t1#

#4t1#   you dying to feel                             Dying to feel
#4t2#E|-------------------------------------------|  -------------------------------------------|  
B|-------------------------------------------|  -------------------------------------------|  
G|-------------------------------------------|  -------------------------------------------|  
D|-----------------------4--------4----------|  ----------------4s-------------------------|  
A|--------------------6--------7-------------|  -------------7-----------------------------|  
E|-----------------4--------4----------------|  ----------4--------------------------------|  #/4t2##/4t1#

Chorse:

#5t1#        Cuse if you got to steal,              you got to steal the show
#5t2#E|-------------------------------------------|  -------------------------------------------|  
B|-------------------------------------------|  -------------------------------------------|  
G|--6-6-6--------6---6---6---------8-8-8-----|  --------8---8----8-------------------------|  
D|--6-6-6--------6---6---6---------8-8-8-----|  --------8---8----8-------------------------|  
A|--4-4-4--------4---4---4---------6-6-6-----|  --------6---6----6-------------------------|  
E|-------------------------------------------|  -------------------------------------------|#/5t2##/5t1#

#6t1#               I`ts the spirit of the underdog
#6t2#E|-------------------------------------------|  
B|-------------------------------------------|  
G|-9-9-9--9-9-9-------------------------4---4|  
D|-9-9-9--9-9-9-----------2-2-2---------4---2|  
A|-7-7-7--7-7-7-S---------2-2-2---------2---2|  
E|------------------------0-0-0--------------|#/6t2##/6t1#

#7t1#          And if you got to breake,              you got to breake them all
#7t2#E|-------------------------------------------|  -------------------------------------------|  
B|-------------------------------------------|  -------------------------------------------|  
G|--6-6-6--------6---6---6---------8-8-8-----|  --------8---8----8-------------------------|  
D|--6-6-6--------6---6---6---------8-8-8-----|  --------8---8----8-------------------------|  
A|--4-4-4--------4---4---4---------6-6-6-----|  --------6---6----6-------------------------|  
E|-------------------------------------------|  -------------------------------------------|#/7t2##/7t1#

#8t1#               I`ts the spirit of the underdog
#8t2#E|-------------------------------------------|  
B|-------------------------------------------|  
G|-9-9-9--9-9-9-------------------------4---4|  Then Play the verse and chorse one more time
D|-9-9-9--9-9-9-----------2-2-2---------4---2|  
A|-7-7-7--7-7-7-S---------2-2-2---------2---2|  
E|------------------------0-0-0--------------|  #/8t2##/8t1#

Then Play the verse and chorse one more time

#9t1#Then play this riff before the solo:
#9t2#E|-------------------------------------------| -------------------------------------------|
B|-------------------------------------------| -------------------------------------------|
G|-------------------------------------------| -------------------------------------------|
D|-------------------------------------------| -------------------------------------------|
A|--4--6--4--6--7--6--4--4--4--6v--4--4-6--4-| -6--7--6--4--4--4--5v--4-------------------|
E|-------------------------------------------| -------------------------------------------|#/9t2##/9t1#

#10t1##10t2#E|-------------------------------------------| -------------------------------------------|
B|-------------------------------------------| -------------------------------------------|
G|-------------------------------------------| -------------------------------------------|
D|-------------------------------------------| -------------------------------------------|
A|--4--6--4--6--7--6--4--4--4--6v--4--4-6--4-| -6--7--6--4--4--4--------------------------|
E|-------------------------------------------| -------------------------------------------|#/10t2##/10t1#

#11t1#Solo:
#11t2#E|-------------------------------------------|------------------12-14-16-17-16-14--------|
B|-10b-9-7-5----10b-9-7-5----10b-9--5-7-9-10-|-9-7h--5----10b-9--------------------------|
G|-------------------------------------------|-------------------------------------------|
D|-------------------------------------------|-------------------------------------------|
A|-------------------------------------------|-------------------------------------------|
E|-------------------------------------------|-------------------------------------------|#/11t2##/11t1#

#12t1##12t2#E|---17b-16-14-12-17b-16-12-14-16-17-16-14-14| -12-11vv_________--------------------------|
B|-------------------------------------------| -------------------10b---------------------|
G|-------------------------------------------| -------------------------------------------|
D|-------------------------------------------| -----------------------11b-----------------|
A|-------------------------------------------| -------------------------------------------|
E|-------------------------------------------| -------------------------------------------|#/12t2##/12t1#
The play th chorse twice.
But the second time you play the chorse you you play this along (With wha-wha somewear):                                       
#13t1##13t2#E|-12v-10b-9v------------------------9-10----| -12-14-16-17b-16-14-12v--------------------|
B|-------------------------------------------| -------------------------------------------|
G|-------------------------------------------| -------------------------------------------|
D|----------------------11v-11b-9------------| -------------------------------------------|
A|--------------7v-7b------------------------| -------------------------------------------|
E|-------------------------------------------| -------------------------------------------|#/13t2##/13t1#

#14t1#Then Finish the song with:
#14t2#E|-------------------------------------------| -------------------------------------------|
B|-------------------------------------------| -------------------------------------------|
G|-------------------------------------------| -------------------------------------------|
D|-------------------------------------------| -------------------------------------------|
A|--4--6--4--6--7--6--4--4--4--6v--4--4--6--4| -6--7--6--4--4--4--5v--4-------------------|
E|-------------------------------------------| -------------------------------------------|#/14t2##/14t1#

#15t1##15t2#E|-------------------------------------------| -------------------------------------------|
B|-------------------------------------------| -------------------------------------------|
G|-------------------------------------------| -------------------------------------------|
D|-------------------------------------------| -------------------------------------------|
A|--4--6--4--6--7--6--4--4--4--6v--4--4--6--4- -6--7--6--4--4--4-5v--4--------------------|
E|-------------------------------------------| -------------------------------------------|#/15t2##/15t1#
Composição: Colaboração e revisão: Ivan Neto