The Final Countdown Solo

Europe

Tom: G
The beginning is kind of hard to play, but use a lot of distorition and play it fast. There are 
some other parts that shall be played pretty fast, but it´s just practise it and adventually 
you will be able to play it!

Any comments or questions can be send to "*"

~ = vibrato
10/13 = slide


#1t1##1t2#E------10---14---10-----------10---14---10-------------12---15---12-----------12---15---12
B--12-------------------12------------------------14-----------------------14------------------
G------------------------------------------------------------------------------------------------
D------------------------------------------------------------------------------------------------
A------------------------------------------------------------------------------------------------
E------------------------------------------------------------------------------------------------#/1t2##/1t1#

#2t1##2t2#E-------13---17----13-----------13---17----13------------------------------------------------
B--15----------------------15------------------------------------------------------------------
G------------------------------------------------------------------------------------------------
D------------------------------------------------------------------------------------------------
A------------------------------------------------------------------------------------------------
E------------------------------------------------------------------------------------------------#/2t2##/2t1#

#3t1##3t2#E------------------7-----------------------------------------------------------------------------
B---8~---8---10---------10---8---7---10---8---7--------------8-8-8---7---------------------
G-----------------------------------------------------7---9-------------------9---7--7--6------
D-------------------------------------------------------------------------------------------9--7
A-----------------------------------------------------------------------------------------------
E------------------------------------------------------------------------------------------------#/3t2##/3t1#

#4t1##4t2#E----7-7------------------------7---------------------------------------------------------------
B----------10--7----------7-----------10---7---------------------------------------------------
G-------------------10----------------------------10---9---7-------9---7-7---9-9-------------
D----------------------------------------------------------------9------------------------------
A------------------------------------------------------------------------------------------------
E------------------------------------------------------------------------------------------------#/4t2##/4t1#

#5t1##5t2#E------10---14---10-----------10---14---10-------------12---15---12-----------12---15---12
B--12-------------------12------------------------14-----------------------14-----------------
G------------------------------------------------------------------------------------------------
D------------------------------------------------------------------------------------------------
A------------------------------------------------------------------------------------------------
E------------------------------------------------------------------------------------------------#/5t2##/5t1#

#6t1##6t2#E-------13---17----13-----------13---17----13------------------------------------------------
B--15----------------------15-------------------------------------------------------------------
G------------------------------------------------------------------------------------------------
D------------------------------------------------------------------------------------------------
A------------------------------------------------------------------------------------------------
E------------------------------------------------------------------------------------------------#/6t2##/6t1#

#7t1##7t2#E------------------7-----------------------------------------------------------------------------
B---8~--8---10---------10---8---7---10---8---7--------------8-8-8---7----------------------
G-----------------------------------------------------7---9-------------------9---7------------
D-----------------------------------------------------------------------------------------------
A-----------------------------------------------------------------------------------------------
E------------------------------------------------------------------------------------------------#/7t2##/7t1#

#8t1##8t2#E------------------------------------------------------------------------------------------------
B---9/12---10-------------------------------12-------------------------------------------------
G-----------------------9----11---11/13------------13~----------------------------------------
D----------------12-----------------------------------------------------------------------------
A-----------------------------------------------------------------------------------------------
E------------------------------------------------------------------------------------------------#/8t2##/8t1#

Composição: Joey TempestColaboração e revisão: