busca

Wake Up Call

Europe

Tom: E
Symbols:

V: Vibration
B: Bend
H: Harmonica

Intro:
E||----------------------------|------------------------|
B||----------------------------|------------------------|
G||*--6----6-------------------|------------------------|
D||*--6----6-------------7--7--|--7----7----------------|
A||---4----4----6--7--6--7--7--|--7----7----9--9--6--6--|
E||----------------------5--5--|--5----5----------------|

------------------------|------------------------|
------------------------|------------------------|
-----6----6-------------|------------------------|
-----6----6-------------|--7--7----7----7--6--6--|
--7--4----4----6--7--6--|--7--7----7----7--6--6--|
------------------------|--5--5----5----5--4--4--|
Play four times

Verse:
E||---------------------|----------------------|
B||---------------------|----------------------|
G||----------4----------|--------4-------------|
D||-------6-------------|-----6----------------|
A||----4----------------|--4----------------4--|
E||---------------------|----------------------|
                                                                                
----------------------|------------------------------|-------------------------|
----------------------|------------------------------|-------------------------|
-----4----------------|--6----------------4----------|----------------4--------|
--6----------------7--|----------------6-------------|-------------6-----------|
----------------4-----|-------------4----------------|----------4--------------|
----------------------|------------------------------|-------------------------|
                                                            
-----------------------|------------------------|---------||
-----------------------|------------------------|---------||
-----------------------|-------------------0----|---------||
------------------7----|------------------------|---------||
-------------7---------|----7---------5---------|----5----||
--------5--------------|---------3--------------|---------||
Play twise

       I don't..   To Explain...  mind..    Well it...
E||----------------------|--------------------------|
B||----------------------|--------------------------|
G||------------6---------|--------------9-----------|
D||---7--------6---------|---2----------9-----------|
A||---7--------4---------|---2----------7-----------|
E||---5------------------|---0----------------------|

E||----------------------|--------------------------|
B||----------------------|--------------------------|
G||------------6---------|---------11---11--11--11--|
D||--7---------6---------|---2-----11---11--11--11--|
A||--7---------4---------|---2------9----9---9---9--|
E||--5-------------------|---0----------------------|
Now Repeat the intro, verse and then chorse again.This is the riff before the solo

----------------------|----------------------|
----------------------|----------------------|
--6----6----6----6----|--6----6----6----6----|
--6----6----6----6----|--6----6----6----6----|
--4----4----4----4----|--4----4----4----4----|
----------------------|----------------------|

-----------------||                                                              
-----------------||
-----------------||
-----------------||
--9r---7/---4----||
-----------------|| 

----------------------|----------------------|------------|------||
----------------------|----------------------|------------|------||
--6----6----6----6----|--6----6----6----6----|------------|------||
--6----6----6----6----|--6----6----6----6----|------------|------||
--4----4----4----4----|--4----4----4----4----|--9r---7~---|------||
----------------------|----------------------|------------|------||

Solo:
E||----------------------|---------------------------|
B||---2-4-5-4-2h--5-7-9-7|-9-9-5--5-7-9-9b-9b-9b-5-2-|
G||-2--------------------|---------------------------|
D||----------------------|---------------------------|
A||----------------------|---------------------------|
E||----------------------|---------------------------|

E||----2---------7b-7-5-7|---7-5---7-5---7-5---------|
B||-----5-2-5-2----------|-7-----7-----7-----7-5--- -|
G||-4--------------------|-----------------------5-7-|
D||----------------------|---------------------------|
A||----------------------|---------------------------|
E||----------------------|---------------------------|

E||-------9-7---9-7--9-7-|---9-7---9-7---12-19b-18-17|
B||-----------9----9-----|-9-----9-----9-------------|
G||----------------------|---------------------------|
D||-7-5------------------|---------------------------|
A||----------------------|---------------------------|
E||----------------------|---------------------------|

E||----------------------|--------------------------|
B||--19-17---------------|--------------------------|
G||--------19-18v--------|--------------------------|
D||----------------------|--------------------------|
A||----------------------|--------------------------|
E||----------------------|--------------------------|

Clipes

Cifra Club Pro

Aproveite o Cifra Club com benefícios exclusivos e sem anúncios
Cifra Club Pro
Aproveite o Cifra Club com benefícios exclusivos e sem anúncios