Wings Of Tomorrow

Europe

A
123
X02220
B
234
X24442
D
123
XX0232
E
123
022100
G
123
320003
Tom: G
Here you have WINGS OF TOMORROW, JUST PASTE IT IN TO WORD AN CHOOSE COURIER NEW FONT SIZE 8
ENJOY
      Intro:                                                 
E||---------------------------|-----------------------|
B||---------------------------|-----------------------|
G||---------------------------|-----------------------|
D||-----5-5-5--4--5-------5-5-|--5--4--5----2----2----|
A||-----7-7-7--5--7-------7-7-|--7--5--7----4----3----|
E||--0-----------------0------|-----------------------|


                                                                                
#1t1##1t2#---------------------------|-----------------------|---------------------------|
---------------------------|-----------------------|---------------------------|
---------------------------|-----------------------|---------------------------|
-----5-5-5--4--5-------5-5-|--5--4--5----2----2----|-----5-5-5--4--5----5--5-5-|
-----7-7-7--5--7-------7-7-|--7--5--7----4----3----|-----7-7-7--5--7----7--7-7-|
--0-----------------0------|-----------------------|--0------------------------|#/1t2##/1t1#


                                                                            
#2t1##2t2#-----------------------|---------------------------|-----------------------|
-----------------------|---------------------------|-----------------------|
-----------------------|---------------------------|-----------------------|
--5--4--5----2----2----|-----5-5-5--4--5----5--5-5-|--5--4--5----2----2----|
--7--5--7----4----3----|-----7-7-7--5--7----7--7-7-|--7--5--7----4----3----|
-----------------------|--0------------------------|-----------------------|#/2t2##/2t1#


#3t1#           Verse:                                           
#3t2#|----------------------------|-----------------------|
|----------------------------|-----------------------|
|*---------------------------|-----------------------|
|*-----5-5-5--4--5----5--5-5-|--5--4--5----2----2----|
|------7-7-7--5--7----7--7-7-|--7--5--7----4----3----|
|---0------------------------|-----------------------|#/3t2##/3t1#


                                                                                
#4t1##4t2#---------------------------|-----------------------|---------------------------|
---------------------------|-----------------------|---------------------------|
---------------------------|-----------------------|---------------------------|
-----5-5-5--4--5----5--5-5-|--5--4--5----2----2----|-----5-5-5--4--5----5--5-5-|
-----7-7-7--5--7----7--7-7-|--7--5--7----4----3----|-----7-7-7--5--7----7--7-7-|
--0------------------------|-----------------------|--0------------------------|#/4t2##/4t1#


                                                                            
#5t1##5t2#-----------------------|---------------------------|-----------------------|
-----------------------|---------------------------|-----------------------|
-----------------------|---------------------------|-----------------------|
--5--4--5----2----2----|-----5-5-5--4--5----5--5-5-|--5--4--5----2----2----|
--7--5--7----4----3----|-----7-7-7--5--7----7--7-7-|--7--5--7----4----3----|
-----------------------|--0------------------------|-----------------------|#/5t2##/5t1#


                                                      
#6t1##6t2#--------------------------|--------------------------|
--------------------------|--------------------------|
--------------------------|--------------------------|
--------------------------|--------------------------|
--3--3-3-3--2--3---3-3----|--5--5-5-5--4--5---5-5----|
--5--5-5-5--3--5---5-5----|--7--7-7-7--5--7---7-7----|#/6t2##/6t1#


                                                      
#7t1##7t2#--------------------------|--------------------------|
--------------------------|--------------------------|
--------------------------|---------9-----------9----|
--------------------------|---------9-----------9----|
--7--7-7-7--5--7---7-7----|---------7-----------7----|
--8--8-8-8--7--8---8-8----|--0--0-0------0--0-0------|#/7t2##/7t1#





                                                      
#8t1##8t2#--------------------------|--------------------------|
--------------------------|--------------------------|
--------------------------|--------------------------|
--------------------------|--------------------------|
--3--3-3-3--2--3---3-3----|--5--5-5-5--4--5---5-5----|
--5--5-5-5--3--5---5-5----|--7--7-7-7--5--7---7-7----|#/8t2##/8t1#


#9t1#                                                      Chorus:                          
#9t2#--------------------------|--------------------------|-------------------------|
--------------------------|--------------------------|-------------------------|
--------------------------|--7--7--7--7--7--7--7--7--|--9------6--6--6-6-6--5--|
--------------------------|--7--7--7--7--7--7--7--7--|--9------7--7--7-7-7--5--|
--7--7-7-7--5--7---7-7----|--5--5--5--5--5--5--5--5--|--7------4--4--4-4-4--3--|
--8--8-8-8--7--8---8-8----|--------------------------|-------------------------|#/9t2##/9t1#


                                                                            
#10t1##10t2#------------------------|-------------------------|------------------------|
------------------------|-------------------------|------------------------|
--5--5-5-5----2--2------|--9------6--6--6-6-6--5--|--5--5-5-5----2--2------|
--5--5-5-5----2--2------|--9------7--7--7-7-7--5--|--5--5-5-5----2--2------|
--3--3-3-3----0--0------|--7------4--4--4-4-4--3--|--3--3-3-3----0--0------|
------------------------|-------------------------|------------------------|#/10t2##/10t1#


                                                                             
#11t1##11t2#-------------------------|------------------------|-------------------------|
-------------------------|------------------------|-------------------------|
--9------6--6--6-6-6--5--|--5--5-5-5----2--2------|--9------6--6--6-6-6--5--|
--9------7--7--7-7-7--5--|--5--5-5-5----2--2------|--9------7--7--7-7-7--5--|
--7------4--4--4-4-4--3--|--3--3-3-3----0--0------|--7------4--4--4-4-4--3--|
-------------------------|------------------------|-------------------------|#/11t2##/11t1#


                                                                              
#12t1##12t2#-------------------------||-------------------------|------------------------|
-------------------------||-------------------------|------------------------|
--5--5-5-5----2--2------*||--9------6--6--6-6-6--5--|--5--5-5-5----2--2------|
--5--5-5-5----2--2------*||--9------7--7--7-7-7--5--|--5--5-5-5----2--2------|
--3--3-3-3----0--0-------||--7------4--4--4-4-4--3--|--3--3-3-3----0--0------|
-------------------------||-------------------------|------------------------|#/12t2##/12t1#


                                                                             
#13t1##13t2#-------------------------|------------------------|-------------------------|
-------------------------|------------------------|-------------------------|
--9------6--6--6-6-6--5--|--5--5-5-5----2--2------|--9------6--6--6-6-6--5--|
--9------7--7--7-7-7--5--|--5--5-5-5----2--2------|--9------7--7--7-7-7--5--|
--7------4--4--4-4-4--3--|--3--3-3-3----0--0------|--7------4--4--4-4-4--3--|
-------------------------|------------------------|-------------------------|#/13t2##/13t1#


                                                                            
#14t1##14t2#------------------------|-------------------------|------------------------|
------------------------|-------------------------|------------------------|
--5--5-5-5----2--2------|--9------6--6--6-6-6--5--|--5--5-5-5----2--2------|
--5--5-5-5----2--2------|--9------7--7--7-7-7--5--|--5--5-5-5----2--2------|
--3--3-3-3----0--0------|--7------4--4--4-4-4--3--|--3--3-3-3----0--0------|
------------------------|-------------------------|------------------------|#/14t2##/14t1#

Solo:

                                                          
#15t1##15t2#-------------------|-------------------|-------------------|
-------------------|-------------------|-------------------|
--2b---------------|--2b---------------|--2b---------------|
-------------------|-------------------|-------------------|
-------------------|-------------------|-------------------|
-------------------|-------------------|-------------------|#/15t2##/15t1#
                                                              
#16t1##16t2#-------------------------------------------------------------|
-------------------------------------------------------------|
-------------------------------------------------------------|
-------------------------------------4-6-7-6-4-6-7-6-4-6-7-6-|
-----4-6-7-4-6-7-7-6-4-4-6-7-6-4-6-7-------------------------|
--7/---------------------------------------------------------|#/16t2##/16t1#


                                                                   
#17t1##17t2#------------------------------------------------------------------|
------------------------------------------------------------------|
------------------------------------------------4-6-7-----4-6-----|
--4-6-7-6-4-6-7-6-4-6-6-4-6-7-6-7-6-7-6-4-6-7-7-------4-6-----4-6-|
------------------------------------------------------------------|
------------------------------------------------------------------|#/17t2##/17t1#


                                                                   
#18t1##18t2#------------------------------------------------------------------|
------------------------------------------------------------------|
--4-4-4-6-7-6-4-4-4-4-4-4-6-7-6-4-4-4-4-6-7-6-4-4-6-7-6-4-4-4-6-7-|
------------------------------------------------------------------|
------------------------------------------------------------------|
------------------------------------------------------------------|#/18t2##/18t1#


                                                                            
#19t1##19t2#----------------------------------------|----------------------------------|
----------------------------------------|--15b-----15----13-15-13-12--13---|
--4-6-----6-7-6-4-6-4-----6-4--6-4-4~---|----------------------------------|
------6-4---------6---4-6---------------|----------------------------------|
----------------------------------------|----------------------------------|
----------------------------------------|----------------------------------|#/19t2##/19t1#


                                                                     
#20t1##20t2#-----------------------------------|--------------------------------|
--15--------------12--13--12-13-12-|----------15r-------------------|
--------12~---14-------------------|--14--12--------14--12--14--12--|
-----------------------------------|--------------------------------|
-----------------------------------|--------------------------------|
-----------------------------------|--------------------------------|#/20t2##/20t1#


                                                        
#21t1##21t2#--------------------|----------------------------------|
--------------------|--15b-----15----13-15-13-12--13---|
--11--12------------|----------------------------------|
----------14~-------|----------------------------------|
--------------------|----------------------------------|
--------------------|----------------------------------|#/21t2##/21t1#


                                                                         
#22t1##22t2#-----------------------------------|------------------------------------|
--15--------------12--13--12-13-12-|------------------------------------|
--------12~---14-------------------|--14--12--11--12--11------14--14-14-|
-----------------------------------|----------------------12--14--14-14-|
-----------------------------------|------------------------------------|
-----------------------------------|------------------------------------|#/22t2##/22t1#


                                                                           
#23t1##23t2#---------------------14-15-14-12----|-------------------------------------|
------14b---14----12-------------12-|-------------------------------------|
--14--14b---14----------------------|--14-12----14------------------------|
--14--------------------------------|--------14----12-14-12---------------|
------------------------------------|------------------------14--7~-------|
------------------------------------|-------------------------------------|#/23t2##/23t1#
Then repete a verse and two chorus
Composição: Colaboração e revisão: