More Than Words

Extreme

Am7
12
X02010
Bm
234
X24432
C
123
X32010
C9
34
X35533
Cm
234
X35543
D
123
XX0232
D/F#
1234
2X0232
D4
123
XX0233
D7
123
XX0212
D7(b9)
1234
X5454X
D9/F#
123
2X0230
Em
12
022000
Em7
123
022030
G
123
320003
G/B
123
X20033
G7
34
353433
Tom: G
[Intro - 2x] G  G/B  C9  Am7  C  D  D4

#1t1#(Parte 1 de 3)
   G        G/B      C9
#1t2#E|----3--x--3--3--x--3--3--x-----3-----x--------------|
B|----3--x--3--3--x--3--3--x-----3--3--x--------------|
G|----0--x--0--0--x--0--0--x-----0--0--x--------------|
D|-------x--------x--------x-----------x--------------|
A|-------x--2-----x--3-----x--3--3--3--x--------------|
E|-3-----x--------x--------x-----------x--------------|
      i        i        i#/1t2##/1t1#

#2t1#(Parte 2 de 3)
   Am7                  C
#2t2#E|----0--x-----3-----x-----0--x-----------------------|
B|-1--1--x-----1--1--x--1--1--x-----------------------|
G|-0--0--x-----0--0--x--0--0--x-----------------------|
D|-------x-----------x--------x-----------------------|
A|-0-----x--0--0--0--x--3-----x-----------------------|
E|-------x-----------x--------x-----------------------|
      i                    i#/2t2##/2t1#

#3t1#(Parte 3 de 3)
   D     D4
#3t2#E|-2-----3--x-----------------------------------------|
B|-3-----3--x-----------------------------------------|
G|----2--2--x-----------------------------------------|
D|-0--------x-----------------------------------------|
A|----------x-----------------------------------------|
E|----------x-----------------------------------------|
         i#/3t2##/3t1#

#4t1#(Parte 1 de 3 - Variação)
   G        G/B      C9
#4t2#E|-3--3--x--3--3--x--3--3--x-----3-----x--------------|
B|-3--3--x--3--3--x--3--3--x-----3--3--x--------------|
G|-0--0--x--0--0--x--0--0--x-----0--0--x--------------|
D|-------x--------x--------x-----------x--------------|
A|-------x--2-----x--3-----x--3--3--3--x--------------|
E|-3-----x--------x--------x-----------x--------------|#/4t2##/4t1#

#5t1#(Repete Parte 2 de 3)
   Am7                  C
#5t2#E|----0--x-----3-----x-----0--x-----------------------|
B|-1--1--x-----1--1--x--1--1--x-----------------------|
G|-0--0--x-----0--0--x--0--0--x-----------------------|
D|-------x-----------x--------x-----------------------|
A|-0-----x--0--0--0--x--3-----x-----------------------|
E|-------x-----------x--------x-----------------------|
      i                    i#/5t2##/5t1#

#6t1#(Repete Parte 3 de 3)
   D     D4
#6t2#E|-2-----3--x-----------------------------------------|
B|-3-----3--x-----------------------------------------|
G|----2--2--x-----------------------------------------|
D|-0--------x-----------------------------------------|
A|----------x-----------------------------------------|
E|----------x-----------------------------------------|
         i#/6t2##/6t1#

[Primeira Parte]

G  G/B         C9
    Saying "I love you"
    Am7             C       D     D4  G
Is not the words I want to hear from you
G/B              C9       Am7
It's not that I want you not to say
    C      D  D4
But if you only knew

[Segunda Parte]

#7t1#Parte 1 de 4
   Em                Am7
#7t2#E|-0--0--x-----0--x-----0--x--------------------------|
B|-0--0--x--0--0--x--1--1--x--------------------------|
G|-0--0--x--0--0--x--0--0--x--------------------------|
D|-------x--------x--------x--------------------------|
A|-------x--2-----x--0-----x--------------------------|
E|-0-----x--------x--------x--------------------------|
      i#/7t2##/7t1#

#8t1#              D7
#8t2#E|----3-----x-----2--x--2--2--x-----------------------|
B|----1--1--x-----1--x--1--1--x-----------------------|
G|----0--0--x-----2--x--2--2--x-----------------------|
D|----------x-----0--x--0-----x-----------------------|
A|-0--0--0--x--0-----x--------x-----------------------|
E|----------x--------x--------x-----------------------|
                           i#/8t2##/8t1#

#9t1#Parte 2 de 4
   G         D9/F#
#9t2#E|-3----3---------0-----------------------------------|
B|-3----3----3----3-----------------------------------|
G|-0----0----2----2-----------------------------------|
D|----------------------------------------------------|
A|----------------------------------------------------|
E|-3----3----2----2-----------------------------------|#/9t2##/9t1#

#10t1#Repete Parte 1
   Em                Am7
#10t2#E|-0--0--x-----0--x-----0--x--------------------------|
B|-0--0--x--0--0--x--1--1--x--------------------------|
G|-0--0--x--0--0--x--0--0--x--------------------------|
D|-------x--------x--------x--------------------------|
A|-------x--2-----x--0-----x--------------------------|
E|-0-----x--------x--------x--------------------------|
      i#/10t2##/10t1#

#11t1#                  D7
#11t2#E|----3-----x-----2--x--2--2--x-----------------------|
B|----1--1--x-----1--x--1--1--x-----------------------|
G|----0--0--x-----2--x--2--2--x-----------------------|
D|----------x-----0--x--0-----x-----------------------|
A|-0--0--0--x--0-----x--------x-----------------------|
E|----------x--------x--------x-----------------------|
                           i#/11t2##/11t1#

#12t1#Parte 3 de 4
   G7                C
#12t2#E|-1--1--x--1--1--x-----0--x-----0-----x--------------|
B|-0--0--x--0--0--x--1--1--x-----1--1--x--------------|
G|-0--0--x--0--0--x--0--0--x-----0--0--x--------------|
D|-------x--------x--------x-----------x--------------|
A|-------x--2-----x--3-----x--3--3--3--x--------------|
E|-3-----x--------x--------x-----------x--------------|
      i        i        i#/12t2##/12t1#

#13t1#   Cm
#13t2#E|----3--x-----3-----x--------------------------------|
B|-4--4--x-----4--4--x--------------------------------|
G|-5--5--x-----5--5--x--------------------------------|
D|-------x-----------x--------------------------------|
A|-3-----x--3--3--3--x--------------------------------|
E|-------x-----------x--------------------------------|
      i#/13t2##/13t1#

#14t1#Parte 4 de 4
   G
#14t2#E|-3--3--x-----3--------------------------------------|
B|-3--3--x-----3--3-----------------------------------|
G|-0--0--x-----0--0-----------------------------------|
D|-------x--------------------------------------------|
A|-------x--------------------------------------------|
E|-3-----x--3--3--3--2--------------------------------|#/14t2##/14t1#

#15t1#   Em7                      Am7  D7
#15t2#E|-3--x--3--x--3--x--3--x---0----2--------------------|
B|-3--x--3--x--3--x--3--x---1----1--------------------|
G|-0--x--0--x--0--x--0--x---0----2--------------------|
D|----x-----x--2--x-----x---2----0--------------------|
A|----x--2--x-----x--2--x---0-------------------------|
E|-0--x-----x-----x-----x-----------------------------|
      i#/15t2##/15t1#

Em     Am7
   How easy
D7               G      D9/F#   Em
It would be to show me how you feel
           Am7
More than words
   D7               G7            C
Is all you have to do to make it real
          Cm               G
Then you wouldn't have to say
          Em7
That you love me
      Am7    D7
Cause I'd already know

[Terceira Parte]

#16t1#Parte 1 de 4
    G                                  
#16t2#E|-----3--x--3--3--x--3--3--x--3--3--x----------------|
B|-----3--x--3--3--x--3--3--x--3--3--x----------------|
G|-----0--x--0--0--x--0--0--x--0--0--x----------------|
D|--------x--------x--------x--------x----------------|
A|--------x--2-----x--------x--2-----x----------------|
E|--3-----x--------x--3-----x--------x--0-------------|
       i        i        i        i#/16t2##/16t1#

#17t1#    D9/F#          Em          Bm
#17t2#E|-----0-----0--x--0--x-----x--------2--x-------------|
B|--3--3--3--3--x--0--x--0--x--3-----3--x-------------|
G|--2-----2-----x--0--x--0--x--4-----4--x-------------|
D|--------------x-----x-----x-----4-----x-------------|
A|--------------x-----x--2--x--2--------x-------------|
E|--2-----2-----x--0--x-----x-----------x-------------|
                                     i#/17t2##/17t1#
#18t1#Parte 2 de 4
   C                                         
#18t2#E|----0--x-----0-----x-----0--x--0--x--0--x-----------|
B|-1--1--x-----1--1--x--1--1--x--1--x--1--x-----------|
G|-0--0--x-----0--0--x--0--0--x--0--x--0--x-----------|
D|-------x-----------x--------x-----x-----x-----------|
A|-3-----x--3--3--3--x--3-----x--3--x--2--x-----------|
E|-------x-----------x--------x-----x-----x-----------|
      i                    i#/18t2##/18t1#

#19t1#Parte 3 de 4
   Am7
#19t2#E|----0--x-----3-----x--------------------------------|
B|-1--1--x-----1--1--x--------------------------------|
G|-0--0--x-----0--0--x--------------------------------|
D|-------x-----------x--------------------------------|
A|-0-----x--0--0--0--x--------------------------------|
E|-------x-----------x--------------------------------|
      i#/19t2##/19t1#

#20t1#Parte 4 de 4
   D7
#20t2#E|-2--x--2--x--2--x--2--x-----------------------------|
B|-1--x--1--x--1--x--1--x-----------------------------|
G|-2--x--2--x--2--x--2--x-----------------------------|
D|-0--x-----x--0--x-----x-----------------------------|
A|----x-----x-----x-----x-----------------------------|
E|----x-----x-----x-----x-----------------------------|#/20t2##/20t1#

#21t1#Repete Parte 1 de 4
    G                                  
#21t2#E|-----3--x--3--3--x--3--3--x--3--3--x----------------|
B|-----3--x--3--3--x--3--3--x--3--3--x----------------|
G|-----0--x--0--0--x--0--0--x--0--0--x----------------|
D|--------x--------x--------x--------x----------------|
A|--------x--2-----x--------x--2-----x----------------|
E|--3-----x--------x--3-----x--------x--0-------------|
       i        i        i        i#/21t2##/21t1#

#22t1#    D9/F#          Em          Bm
#22t2#E|-----0-----0--x--0--x-----x--------2--x-------------|
B|--3--3--3--3--x--0--x--0--x--3-----3--x-------------|
G|--2-----2-----x--0--x--0--x--4-----4--x-------------|
D|--------------x-----x-----x-----4-----x-------------|
A|--------------x-----x--2--x--2--------x-------------|
E|--2-----2-----x--0--x-----x-----------x-------------|
                                     i#/22t2##/22t1#
#23t1#Repete Parte 2 de 4
   C                                         
#23t2#E|----0--x-----0-----x-----0--x--0--x--0--x-----------|
B|-1--1--x-----1--1--x--1--1--x--1--x--1--x-----------|
G|-0--0--x-----0--0--x--0--0--x--0--x--0--x-----------|
D|-------x-----------x--------x-----x-----x-----------|
A|-3-----x--3--3--3--x--3-----x--3--x--2--x-----------|
E|-------x-----------x--------x-----x-----x-----------|
      i                    i#/23t2##/23t1#


#24t1#Parte 3 de 4 - Variação
   Am7
#24t2#E|----0--x-----3-----x--2-----------------------------|
B|-1--1--x-----1--1--x--1-----------------------------|
G|-0--0--x-----0--0--x--2-----------------------------|
D|-------x-----------x--0-----------------------------|
A|-0-----x--0--0--0--x--------------------------------|
E|-------x-----------x--------------------------------|
      i#/24t2##/24t1#

G                 D9/F#
  What would you do
       Em        Bm       C
If my heart was torn in two
                             Am7
More than words to show you feel
           D7             G
That your love for me is real
                D9/F#
What would you say
      Em         Bm     C
If I took those words away
                               Am7
Than you couldn't make things new
         D7            
Just by saying I love you

[Refrão]

#25t1#(Parte 1 de 3)
   G        G/B      C9
#25t2#E|-3--3--x--3--3--x--3--3--x-----3-----x--------------|
B|-3--3--x--3--3--x--3--3--x-----3--3--x--------------|
G|-0--0--x--0--0--x--0--0--x-----0--0--x--------------|
D|-------x--------x--------x-----------x--------------|
A|-------x--2-----x--3-----x--3--3--3--x--------------|
E|-3-----x--------x--------x-----------x--------------|#/25t2##/25t1#

#26t1#(Parte 2 de 3)
   Am7                  C
#26t2#E|----0--x-----3-----x-----0--x-----------------------|
B|-1--1--x-----1--1--x--1--1--x-----------------------|
G|-0--0--x-----0--0--x--0--0--x-----------------------|
D|-------x-----------x--------x-----------------------|
A|-0-----x--0--0--0--x--3-----x-----------------------|
E|-------x-----------x--------x-----------------------|
      i                    i#/26t2##/26t1#

#27t1#(Parte 3 de 3)
   D     D4
#27t2#E|-2-----3--x-----------------------------------------|
B|-3-----3--x-----------------------------------------|
G|----2--2--x-----------------------------------------|
D|-0--------x-----------------------------------------|
A|----------x-----------------------------------------|
E|----------x-----------------------------------------|
         i#/27t2##/27t1#

#28t1#(Repete Parte 1 de 3)
   G        G/B      C9
#28t2#E|-3--3--x--3--3--x--3--3--x-----3-----x--------------|
B|-3--3--x--3--3--x--3--3--x-----3--3--x--------------|
G|-0--0--x--0--0--x--0--0--x-----0--0--x--------------|
D|-------x--------x--------x-----------x--------------|
A|-------x--2-----x--3-----x--3--3--3--x--------------|
E|-3-----x--------x--------x-----------x--------------|#/28t2##/28t1#

#29t1#(Parte 2 de 3)
   Am7  D7
#29t2#E|-0----2---------------------------------------------|
B|-1----1---------------------------------------------|
G|-0----2---------------------------------------------|
D|-2----0---------------------------------------------|
A|-0--------------------------------------------------|
E|----------------------------------------------------|#/29t2##/29t1#

G  G/B  C9             Am7            C
       Da ri da la ri ra ri la la ri la
 D     D4  G    G/B
More than words
 C9             Am7  D7
Da ri da la ri ra


G G/B               C9
    Now that I've tried to
  Am7             C       D  D4     G  G/B
Talk to you and make you understand
         C9             Am7
All you have to do is close your eyes
      C          D   D4   Em
And just reach out your hands

[Segunda Parte]

#30t1#Parte 1 de 4
   Em                Am7
#30t2#E|-0--0--x-----0--x-----0--x--------------------------|
B|-0--0--x--0--0--x--1--1--x--------------------------|
G|-0--0--x--0--0--x--0--0--x--------------------------|
D|-------x--------x--------x--------------------------|
A|-------x--2-----x--0-----x--------------------------|
E|-0-----x--------x--------x--------------------------|
      i#/30t2##/30t1#

#31t1#              D7
#31t2#E|----3-----x-----2--x--2--2--x-----------------------|
B|----1--1--x-----1--x--1--1--x-----------------------|
G|----0--0--x-----2--x--2--2--x-----------------------|
D|----------x-----0--x--0-----x-----------------------|
A|-0--0--0--x--0-----x--------x-----------------------|
E|----------x--------x--------x-----------------------|
                           i#/31t2##/31t1#

#32t1#Parte 2 de 4
   G           D9/F#       Em         Am7         
#32t2#E|-3--x--3--x--2--x--2--x--0---0--x---0--0--x---------|
B|-3--x--3--x--3--x--3--x--0---0--x---1--1--x---------|
G|-0--x--0--x--2--x--2--x--0---0--x---0--0--x---------|
D|-0--x--0--x--0--x--0--x--2---2--x---2-----x---------|
A|-2--x--2--x--0--x--0--x--2---2--x---0-----x---------|
E|-3--x--3--x--2--x--2--x--0---0--x---------x---------|#/32t2##/32t1#

#33t1#    Am7            D7
#33t2#E|-----3-----x-----2--x--2--2--x----------------------|
B|-----1--1--x-----1--x--1--1--x----------------------|
G|-----0--0--x-----2--x--2--2--x----------------------|
D|-----------x-----0--x--0-----x----------------------|
A|--0--0--0--x--0-----x--------x----------------------|
E|-----------x--------x--------x----------------------|
                            i    #/33t2##/33t1#

#34t1#Parte 3 de 4
   G7                C
#34t2#E|-1--1--x--1--1--x-----0--x-----0-----x--------------|
B|-0--0--x--0--0--x--1--1--x-----1--1--x--------------|
G|-0--0--x--0--0--x--0--0--x-----0--0--x--------------|
D|-------x--------x--------x-----------x--------------|
A|-------x--2-----x--3-----x--3--3--3--x--------------|
E|-3-----x--------x--------x-----------x--------------|
      i        i        i#/34t2##/34t1#

#35t1#   Cm
#35t2#E|----3--x-----3-----x--------------------------------|
B|-4--4--x-----4--4--x--------------------------------|
G|-5--5--x-----5--5--x--------------------------------|
D|-------x-----------x--------------------------------|
A|-3-----x--3--3--3--x--------------------------------|
E|-------x-----------x--------------------------------|
      i#/35t2##/35t1#

#36t1#Parte 4 de 4
   G
#36t2#E|-3--3--x-----3--------------------------------------|
B|-3--3--x-----3--3-----------------------------------|
G|-0--0--x-----0--0-----------------------------------|
D|-------x--------------------------------------------|
A|-------x--------------------------------------------|
E|-3-----x--3--3--3--2--------------------------------|#/36t2##/36t1#

#37t1#   Em7                      Am7  D7   D7(b9)
#37t2#E|-3--x--3--x--3--x--3--x---0----2----5---------------|
B|-3--x--3--x--3--x--3--x---1----1----4---------------|
G|-0--x--0--x--0--x--0--x---0----2----5---------------|
D|----x-----x--2--x-----x---2----0----0---------------|
A|----x--2--x-----x--2--x---0-------------------------|
E|-0--x-----x-----x-----x-----------------------------|
      i#/37t2##/37t1#

     Am7
And touch me
 D7                  G     D/F#   Em
Hold me close, don't ever let me go
           Am7
More than words
   D7          G7             C
Is all I ever needed you to show
          Cm               G
Then you wouldn't have to say
          Em7
That you love me
      Am7    D7   D7(b9)   G
Cause I'd already        know

[Final]

                D9/F#
What would you do
   Em        Bm       C
If my heart was torn in two
                         G/B Am7
More than words to show you feel
           D7             G
That your love for me is real
                D9/F#
What would you say
   Em         Bm     C
If I took those words away
                               Am7
Than you couldn't make things new
         D7            G
Just by saying I love you
Composição: Gary Cherone / Nuno BettencourtColaboração e revisão: Lucas KappaunDavi RakPaulo MariniRaquel Alguedarie mais 3
Videoaula More Than Words (aula de violão completa)