Borbulhas de Amor

Fagner

A
123
X02220
Am7
12
X02010
Bm
234
X24432
D
1234
X54230
D/E
1234
054230
E
123
022100
E/G#
123
4X2100
Em
12
022000
F
234
133211
G
1234
320033
Tom: G
Introdução:

#1t1#Solo - Parte 1 de 2
#1t2#E|-----2------------------------------------|
B|-2/3--------5/7-7\5-5---5-----------------|
G|----------------------4-------------------|
D|------------------------------------------|
A|------------------------------------------|
E|------------------------------------------|#/1t2##/1t1#

#2t1#Solo - Parte 2 de 2
#2t2#E|------------------------------------------|
B|-3/5\3-2----------------------------------|
G|---------4-2h4p2\1-1-2-4-2~---------------|
D|------------------------------------------|
A|------------------------------------------|
E|------------------------------------------|#/2t2##/2t1#

Base: Bm  E/G#  Bm  E

#3t1#   Bm           E/G#         Bm      E
#3t2#E|------------------------------------------|
B|-------3------------0------------3-------0|
G|-----4------------1------------4-------1--|
D|---4------------2------------4-------2----|
A|-2---------2---------------2--------------|
E|---------2----4-------0-0----------0------|#/3t2##/3t1#

Primeira Parte:

#4t1#Parte 1 de 4
   A
#4t2#E|---------0-------------------0------------|
B|-------2-2---2---2---------2-2---2---2----|
G|-----2---2---2---2-------2---2---2---2----|
D|---2-----2---2---2-----2-----2---2---2----|
A|-0-------0-----------0-------0------------|
E|-----------0---0---------------0---0------|#/4t2##/4t1#

#5t1#Variação Parte 1
   A
#5t2#E|---------0-------------------0------------|
B|-------2-2---2---2---------2-2---2---2----|
G|-----2---2---2---2-------2---2---2---2----|
D|---2-----2-2-----2-----2-----2---2---2----|
A|-0-------0-----------0-------0-----0------|
E|---------------0---------------0----------|#/5t2##/5t1#

#6t1#Parte 2 de 4
   E/G#
#6t2#E|---------0-------------------0------------|
B|-------0-0---0---0---------0-0---0---0----|
G|-----1---1---1---1-------1---1---1---1----|
D|---2-----2---2---2-----2-----2---2---2----|
A|------------------------------------------|
E|-4---------0---0-----4---------0---0------|#/6t2##/6t1#

#7t1#Parte 3 de 4
   Bm                D         Bm
#7t2#E|---------2--------------------------------|
B|-------3-3---3-----------3---------3------|
G|-----4---4---4---------2---------4--------|
D|---4-----4---4-------4---------4----------|
A|-2-------------2-4-5-------4-2-------0----|
E|-----------2------------------------------|#/7t2##/7t1#

#8t1#Parte 4 de 4
   E/G#               Bm         E
#8t2#E|---------0------------------2----------0--|
B|-------0-0---0---0--------3-3--------0-0--|
G|-----1---1---1---1------4---4------1---1--|
D|---2-----2---2---2----4-----4----2-----2--|
A|--------------------2-------2----------2--|
E|-4---------0---0---------------0----------|#/8t2##/8t1#


#9t1#Variação Parte 4
   E/G#               Bm         E
#9t2#E|---------0------------------2-------------|
B|-------0-0---0---0--------3-3----0--------|
G|-----1---1---1---1------4---4----1--------|
D|---2-----2---2---2----4-----4----2--------|
A|--------------------2-------2-------------|
E|-4---------0---0---------------0---2-4----|#/9t2##/9t1#

 A
Tenho um coração
                    E/G#
Dividido entre a esperança
E a razão
 Bm              D
Tenho um coração
        Bm            E/G#  Bm  E
Bem melhor que não tivera
A
Esse coração
                    E/G#
Não consegue se conter
Ao ouvir tua voz
 Bm           D
Pobre coração
           Bm         E/G#  Bm  E
Sempre escravo da ternura

Refrão:
                  A
Quem dera ser um peixe

Para em teu límpido
               E/G#
Aquário mergulhar

Fazer borbulhas de amor
             Bm  D
Pra te encantar
    Bm              E/G#
Passar a noite em claro
     Bm    E
Dentro de ti

    A
Um peixe
 
Para enfeitar de corais
        E/G#
Tua cintura

Fazer silhuetas de amor
          Bm  D
À luz da lua
    Bm          E/G#
Saciar esta loucura
     Bm    E
Dentro de ti

Solo 1:

#10t1#Parte 1 de 2
#10t2#E|----------------------------2-------------|
B|-5-3--2-3-5--2-3-5-3--2-3-5---5p3-5~------|
G|------------------------------------------|
D|------------------------------------------|
A|------------------------------------------|
E|------------------------------------------|#/10t2##/10t1#

#11t1#Parte 2 de 2
#11t2#E|------------------------------------------|
B|-2/3-2------------------------------------|
G|-------4--1-2--4p2------------------------|
D|-------------------5-2-2/4----------------|
A|---------------------------5-7------------|
E|------------------------------------------|#/11t2##/11t1#

Base Solo 1: A  E/G#  Bm  G  D  D/E  E

#12t1#Parte 1 de 4
   A
#12t2#E|---------0-------------------0------------|
B|-------2-2---2---2---------2-2---2---2----|
G|-----2---2---2---2-------2---2---2---2----|
D|---2-----2---2---2-----2-----2---2---2----|
A|-0-------0-----------0-------0------------|
E|-----------0---0---------------0---0------|#/12t2##/12t1#

#13t1#Parte 2 de 4
   E/G#
#13t2#E|---------0-------------------0------------|
B|-------0-0---0---0---------0-0---0---0----|
G|-----1---1---1---1-------1---1---1---1----|
D|---2-----2---2---2-----2-----2---2---2----|
A|------------------------------------------|
E|-4---------0---0-----4---------0---0------|#/13t2##/13t1#

#14t1#Parte 3 de 4
   Bm                  G          D
#14t2#E|----------2------------------3------------|
B|--------3-3---3---3--------3-3----3---3---|
G|------4---4---4---4------0---0----2---2---|
D|----4-----4---4---4----0-----0----4---4---|
A|--2-----------------------------5---5-----|
E|------------2---2----3--------------------|#/14t2##/14t1#

#15t1#Parte 4 de 4
   D/E                E
#15t2#E|----------------------------0-------------|
B|-------3-3---3---3--------0-0---0---0-----|
G|-----2---2---2---2------1---1---1---1-----|
D|---4-----4---4---4----2-----2---2---2-----|
A|------------------------------------------|
E|-0---------0---0----0---------0---0-------|#/15t2##/15t1#

Repete a Primeira Parte:

 A
Canta coração
                    E/G#
Que esta alma necessita
De ilusão
 Bm           D
Sonha coração
       Bm             E/G#  Bm  E
Não te enchas de amargura
A
Esse coração
                    E/G#
Não consegue se conter
Ao ouvir tua voz
 Bm           D
Pobre coração
           Bm         E/G#  Bm  E
Sempre escravo da ternura

Repete o Refrão:
                  A
Quem dera ser um peixe

Para em teu límpido
               E/G#
Aquário mergulhar

Fazer borbulhas de amor
             Bm  D
Pra te encantar
    Bm              E/G#
Passar a noite em claro
     Bm    E
Dentro de ti

    A
Um peixe
 
Para enfeitar de corais
        E/G#
Tua cintura

Fazer silhuetas de amor
          Bm  D
À luz da lua
    Bm          E/G#
Saciar esta loucura
     Bm    E
Dentro de ti

Segunda Parte:

#16t1#Parte 1 de 2
   F                   G
#16t2#E|---------1-------------------3------------|
B|-------1-1---1---1---------3-3---3---3----|
G|-----2---2---2---2-------0---0---0---0----|
D|---3-----3---3---3-----0-----0---0---0----|
A|-----------3-------------------2----------|
E|-1-------------1-----3-------------3------|#/16t2##/16t1#

#17t1#Parte 2 de 2
   Em                  Am7
#17t2#E|----------0------------------0------------|
B|-------0--0---0---0--------1-1---1---1----|
G|-----0----0---0---0------0---0---0---0----|
D|---2------2---2---2----2-----2---2---2----|
A|------------2--------0--------------------|
E|-0--------------0--------------0---0------|#/17t2##/17t1#

F      G
  Uma noite
       Em            Am7
Para unir-nos até o fim
F         G             Em
  Cara a cara, beijo a beijo
     Am7
E viver
F       G                A
  Para sempre dentro de ti

Solo 2:

#18t1#Parte 1 de 2
#18t2#E|-------------2----------------------------|
B|-----2-3-4-5---2-3-5----------------------|
G|-2-4--------------------------------------|
D|------------------------------------------|
A|------------------------------------------|
E|------------------------------------------|#/18t2##/18t1#

#19t1#Parte 2 de 2
#19t2#E|-----2--------2-----2--5-5p4--------------|
B|-3-5---5--3-5---3-5----------7-5----------|
G|------------------------------------------|
D|------------------------------------------|
A|------------------------------------------|
E|------------------------------------------|#/19t2##/19t1#

Base do Solo: A  E/G#  Bm  D  Bm  E/G#  Bm  E

Refrão Final:
                  A
Quem dera ser um peixe

Para em teu límpido
               E/G#
Aquário mergulhar

Fazer borbulhas de amor
             Bm  D
Pra te encantar
    Bm              E/G#
Passar a noite em claro
     Bm    E
Dentro de ti

    A
Um peixe
 
Para enfeitar de corais
        E/G#
Tua cintura

Fazer silhuetas de amor
          Bm  D
À luz da lua
    Bm          E/G#
Saciar esta loucura
     Bm    E
Dentro de ti

    A
Um peixe

Para em teu límpido
               E/G#
Aquário mergulhar

Fazer borbulhas de amor
             Bm  D
Pra te encantar
    Bm              E/G#
Passar a noite em claro
     Bm    E
Dentro de ti

    A
Um peixe
 
Para enfeitar de corais
        E/G#
Tua cintura

Fazer silhuetas de amor
          Bm  D
À luz da lua
    Bm          E/G#
Saciar esta loucura
     Bm    E
Dentro de ti
F       G
  Para sempre
           A
Dentro de ti
Composição: Ferreira Gullar / J.L.GuerraColaboração e revisão: Caroline LeroyGabriel SouzaAlex Belini
Videoaula Borbulhas de Amor (aula de violão completa)