Cinza

Fagner

A
123
X02220
A/B
1234
X2222X
Am
123
X02210
Asus2
12
X02200
B7
1234
X21202
C#dim7
234
X45353
C7M
12
X3200X
Cdim7
1234
XX1212
D#dim7
1234
XX1212
Edim7
1234
XX2323
Em
12
022000
F#dim7
1234
2X121X
G
123
320003
Tom: G
Intro:

#1t1# Asus2 Am A/B        (2x)
#1t2#E|------0----------
B|0--1--1--4--4-5-4
G|2--2--2--4--4-4-4
D|2--2--2--4--4-4-4
A|0--0--0--0--0-0-0
E|-----------------#/1t2##/1t1#

#2t1#     Asus2 BbB5/A A    Asus2     A
#2t2#E|-----------------------------------
B|---0--0--3--2--2-3-2------0--0--2--
G|---2--3--3--2--2-2-2---2--3--2--2--
D|---2--2--2--2--2-2-2---2--2--2--2--
A|---0--0--0--0--000-----0--0--0--0--
E|-----------------------------------#/2t2##/2t1#


Em                              A
Jogue os meus olhos no azul do céu
G                                A
Jogue os meus dedos no clarão do mar

C7M             B7                  G
Jogue os meus cabelos na flor deste luar

               C7M                     C#dim7
E eu serei só música, me espalharei nas cinzas

               Cdim7  D#dim7         F#dim7 Edim7
E ficarei mais leve   pra      cantar

                  C7M
Serei feliz com a morte

                C#dim7
Que venha feito mansa

                 Cdim7    D#dim7   F#dim7 Edim7
Como vem mansa a última onda do mar

Ponte:
F#dim7  Edim7  F#dim7  Edim7  Cdim7  D#dim7  F#dim7  Edim7

Solo:
Am  A/B  BbB5/A  A
Composição: Colaboração e revisão: pedro paulo