Gente Humilde

Fagner

A7
12
X02020
A7(13)
12
X0X022
A9-
123
X02320
Am7
12
X02010
B9-
234
X24542
Bm
234
X24432
C9
34
X35533
D7
123
XX0212
D7+
123
XX0222
E7
1234
022130
Em7
123
022030
F#m7
1234
2X222X
1234
XX3434
G#m5-/7
1234
4X443X
G7+
1234
3X443X
Gm
34
355333
Tom: G
Intro: D7+ Bm G7+ A9-

           D7+                         Em7
Tem certos dias em que eu penso em minha gente
          A7(13)        A7           D7+
E sinto assim todo meu peito se apertar
         F#m7                 Em7
Porque parece que acontece de repente
          A7(13)        A7           D7+      A9-
Como um desejo de eu viver sem me notar


        D7+                     Em7
Igual a como quando eu passo no subúrbio
         A7(13)         A7              Am7     D7
Eu muito bem, vindo de trem de algum lugar
        G7+           C9         F#m7     B9-
E aí me dá como uma inveja dessa gente
           E7             A7(13)           D7+    A9-
Que vai em frente sem nem ter com quem contar


          D7+                       Em7
São casas simples, com cadeiras na calçada
       A7(13)            A7            D7+
E na fachada escrito em cima que é um lar
       F#m7                    Em7
Pela varanda flores tristes e baldias
          A7(13)        A7            D7+     A9-
Como a alegria que não tem onde encostar


        D7+                  Em7
E aí me dá uma tristeza no meu peito
            A7(13)           A7         Am7    D7
Feito um despeito de eu não ter como lutar
             G#m5-/7       Gm             F#m7     B9-
E eu que não creio, peço a Deus por minha gente
          E7            A9-         D7+
É gente humilde, que vontade de chorar

2º violão
Repete (2 X)

#1t1#                                                      2ªParte
#1t2#E|--5-7-5-------------------------------------------------------------------|
B|----------------7-5----------------------7-7-7-7-3----------------0-0-0-0-|
G|--------7-7-7-7-----7------------4-4-4-4------------------2-2-2-2---------|
D|----------------------8-7--7-7-7--------------------4-4-4-----------------|
A|--------------------------------------------------------------------------|
E|--------------------------------------------------------------------------|#/1t2##/1t1#

#2t1##2t2#E|--------------2-2-2-2-2-2-0-0------------0-0-0-0--------------------------|
B|-3--0---0-0-0-----------------2------------------3-3-0-0-3--0---0-0-0-3-3-|
G|-----------------------------------2-2-2----------------------------------|
D|--------------------------------------------------------------------------|
A|--------------------------------------------------------------------------|
E|--------------------------------------------------------------------------|#/2t2##/2t1#

#3t1##3t2#E|----------------------------------------------------------2-2-2-2-2-0---0-|
B|-3-3-2-2-----2-----------------------0-0-0-0-3--0---0-0-0-------------4---|
G|---------2-2-----0-2-3-------2-2-2-2--------------------------------------|
D|---------------4-------4-4-4----------------------------------------------|
A|--------------------------------------------------------------------------|
E|--------------------------------------------------------------------------|#/3t2##/3t1#

#4t1#                                                       Passagem 2ªparte Final
#4t2#E|-5-5-5-7-5------------------------------------------------------------2---|
B|-------------------7-5----------------------7-7-7-7-3-----------------2---|
G|-----------7-7-7-7-----7------------4-4-4-4--------------0-2-3--------2---|
D|-------------------------8-7--7-7-7---------------------4-------------0---|
A|--------------------------------------------------------------------------|
E|--------------------------------------------------------------------------|#/4t2##/4t1#
Composição: Chico BuarqueColaboração e revisão: Paulo Souza