busca

Adorai, Adonai

Fernanda Brum

Tom: C
[Intro]

      Am        Em        Am        G/B       C9
E|---------------------------0---------3-0-------0---|
B|-----1-0---------3-1---------3-------------------3-|
G|-----------------------------------0---------------|
D|---2-----------2---------2-------------------2-----|
A|-0---------------------0---------2---------3-------|
E|-------------0-------------------------------------|

     G/B        Am        Em     Am
E|-----------------------------------|
B|---1-0-1---------1-0---------------|
G|-------------------------2-0-2-----|
D|---------------2-------------------|
A|-2-----------0-------------------0-|
E|-----------------------0-----------|

Am9                   F          G        Am9
   Meus pés pisaram Seol, minha mente morreu
                     F          G           C         
   Angústia me dominou, já não sou nem mais eu
         G/B           Am7         Em          Am9
Meus olhos buscam teu rosto, onde está o meu Deus
      Am9/G             F              G
Que ungiu a minha ca----beça e me chamou filho meu

      Am        Em        Am      G/B
E|---------------------------0---------3-|
B|-----1-0---------3-1---------3---------|
G|-----------------------------------0---|
D|---2-----------2---------2-------------|
A|-0---------------------0---------2-----|
E|-------------0-------------------------|

Am9                    F          G           Am9
   Estou no ventre do peixe, o terror me engoliu
                         F         G        C
  No mais profundo dos mares tua mão me cobriu
               G/B      Am         Em      Am
Por mais que eu fuja de tudo tu me alcançarás
                     F             G4
A tua Unção não me deixa, não me deixa nunca

C   G       Dm           Am        G
Adorai, eu digo à minha alma, eu grito
C    G        Dm              Am        G
Aba Pai, que quebra minhas correntes, clamo
F   Am   F  Am            G4
Adonai, Adonai tu és meu dono

Am                    F
  Estou no ventre do peixe

C   G       Dm           Am       G
Adorai, eu digo à minha alma eu grito

[Solo] Bb/F  F  Am  Em  Am  D/F#  G  D/F#  Em  A4  D  F/G  G  G/B

C   G       Dm           Am       G
Adorai, eu digo à minha alma eu grito

      Am        Em        Am        G/B       C9
E|---------------------------0---------3-0-------0---|
B|-----1-0---------3-1---------3-------------------3-|
G|-----------------------------------0---------------|
D|---2-----------2---------2-------------------2-----|
A|-0---------------------0---------2---------3-------|
E|-------------0-------------------------------------|

     G/B        Am        Em   Am9
E|----------------------------------|
B|---1-0-1---------0-1----0-------1-|
G|--------------------------2-0---4-|
D|---------------2----------------2-|
A|-2-----------0------------------0-|
E|------------------------0---------|

Clipes

Cifra Club Pro

Aproveite o Cifra Club com benefícios exclusivos e sem anúncios
Cifra Club Pro
Aproveite o Cifra Club com benefícios exclusivos e sem anúncios