Adorai, Adonai

Fernanda Brum

A4
123
X02230
Am
123
X02210
Am7
12
X02010
Am9
123
X02410
Am9/G
1234
302410
Bb/F
1234
X8876X
C
123
X32010
C9
34
X35533
D
123
XX0232
D/F#
1234
2X0232
Dm
123
XX0231
Em
12
022000
F
234
133211
F/G
1234
3X321X
G
123
320003
G/B
123
X20033
G4
234
355533
Tom: G
[Intro]

#1t1#      Am        Em        Am        G/B       C9
#1t2#E|---------------------------0---------3-0-------0---|
B|-----1-0---------3-1---------3-------------------3-|
G|-----------------------------------0---------------|
D|---2-----------2---------2-------------------2-----|
A|-0---------------------0---------2---------3-------|
E|-------------0-------------------------------------|#/1t2##/1t1#

#2t1#     G/B        Am        Em     Am
#2t2#E|-----------------------------------|
B|---1-0-1---------1-0---------------|
G|-------------------------2-0-2-----|
D|---------------2-------------------|
A|-2-----------0-------------------0-|
E|-----------------------0-----------|#/2t2##/2t1#

Am9                   F          G        Am9
   Meus pés pisaram Seol, minha mente morreu
                     F          G           C         
   Angústia me dominou, já não sou nem mais eu
         G/B           Am7         Em          Am9
Meus olhos buscam teu rosto, onde está o meu Deus
      Am9/G             F              G
Que ungiu a minha ca----beça e me chamou filho meu

#3t1#      Am        Em        Am      G/B
#3t2#E|---------------------------0---------3-|
B|-----1-0---------3-1---------3---------|
G|-----------------------------------0---|
D|---2-----------2---------2-------------|
A|-0---------------------0---------2-----|
E|-------------0-------------------------|#/3t2##/3t1#

Am9                    F          G           Am9
   Estou no ventre do peixe, o terror me engoliu
                         F         G        C
  No mais profundo dos mares tua mão me cobriu
               G/B      Am         Em      Am
Por mais que eu fuja de tudo tu me alcançarás
                     F             G4
A tua Unção não me deixa, não me deixa nunca

C   G       Dm           Am        G
Adorai, eu digo à minha alma, eu grito
C    G        Dm              Am        G
Aba Pai, que quebra minhas correntes, clamo
F   Am   F  Am            G4
Adonai, Adonai tu és meu dono

Am                    F
  Estou no ventre do peixe

C   G       Dm           Am       G
Adorai, eu digo à minha alma eu grito

[Solo] Bb/F  F  Am  Em  Am  D/F#  G  D/F#  Em  A4  D  F/G  G  G/B

C   G       Dm           Am       G
Adorai, eu digo à minha alma eu grito

#4t1#      Am        Em        Am        G/B       C9
#4t2#E|---------------------------0---------3-0-------0---|
B|-----1-0---------3-1---------3-------------------3-|
G|-----------------------------------0---------------|
D|---2-----------2---------2-------------------2-----|
A|-0---------------------0---------2---------3-------|
E|-------------0-------------------------------------|#/4t2##/4t1#

#5t1#     G/B        Am        Em   Am9
#5t2#E|----------------------------------|
B|---1-0-1---------0-1----0-------1-|
G|--------------------------2-0---4-|
D|---------------2----------------2-|
A|-2-----------0------------------0-|
E|------------------------0---------|#/5t2##/5t1#
Composição: Fernanda Brum / Livingsthom FariasColaboração e revisão: Paulo CamposGui SenaFlamerson SantosElizeu Venturae mais 9