Adorai, Adonai

Fernanda Brum

A4
123
X02230
Am
123
X02210
Am7
12
X02010
Am9
123
X02410
Am9/G
1234
302410
Bb/F
1234
X8876X
C
123
X32010
C9
34
X35533
D
123
XX0232
D/F#
1234
2X0232
Dm
123
XX0231
Em
12
022000
F
234
133211
F/G
1234
3X321X
G
123
320003
G/B
123
X20033
G4
234
355533
Tom: G
[Intro]


      Am        Em        Am      
E|---------------------------0----
B|-----1-0---------3-1---------3--
G|--------------------------------
D|---2-----------2---------2------
A|-0---------------------0--------
E|-------------0------------------
    G/B       C9
E|-----3-0-------0---| 
B|-----------------3-| 
G|---0---------------| 
D|-------------2-----| 
A|-2---------3-------| 
E|-------------------| 



     G/B        Am        Em     
E|--------------------------------
B|---1-0-1---------1-0------------
G|-------------------------2-0-2--
D|---------------2----------------
A|-2-----------0------------------
E|-----------------------0--------
  Am
E|---| 
B|---| 
G|---| 
D|---| 
A|-0-| 
E|---| 


Am9                   F      
   Meus pés pisaram Seol, minha 
    G        Am9
mente morreu
                     F          G 
   Angústia me dominou, já não sou
          C
 nem mais eu
         G/B           Am7      
Meus olhos buscam teu rosto, onde 
   Em          Am9
está o meu Deus
      Am9/G             F         
Que ungiu a minha ca----beça e me 
     G
chamou filho meu


      Am        Em        Am      
E|---------------------------0----
B|-----1-0---------3-1---------3--
G|--------------------------------
D|---2-----------2---------2------
A|-0---------------------0--------
E|-------------0------------------
  G/B
E|-----3-| 
B|-------| 
G|---0---| 
D|-------| 
A|-2-----| 
E|-------| 


Am9 F Estou no ventre do peixe, o G Am9 terror me engoliu F No mais profundo dos mares tua G C mão me cobriu G/B Am Por mais que eu fuja de tudo tu me Em Am alcançarás F A tua Unção não me deixa, não me G4 deixa nunca C G Dm Am Adorai, eu digo à minha alma, eu G grito C G Dm Aba Pai, que quebra minhas Am G correntes, clamo F Am F Am G4 Adonai, Adonai tu és meu dono Am F Estou no ventre do peixe C G Dm Am Adorai, eu digo à minha alma eu G grito [Solo] Bb/F F Am Em Am D/F# G D/F# Em A4 D F/G G G/B C G Dm Am Adorai, eu digo à minha alma eu G grito Am Em Am E|---------------------------0---- B|-----1-0---------3-1---------3-- G|-------------------------------- D|---2-----------2---------2------ A|-0---------------------0-------- E|-------------0------------------ G/B C9 E|-----3-0-------0---| B|-----------------3-| G|---0---------------| D|-------------2-----| A|-2---------3-------| E|-------------------| G/B Am Em E|-------------------------------- B|---1-0-1---------0-1----0------- G|--------------------------2-0--- D|---------------2---------------- A|-2-----------0------------------ E|------------------------0------- Am9 E|--| B|1-| G|4-| D|2-| A|0-| E|--|
Composição: Fernanda Brum / Livingsthom FariasColaboração e revisão: Paulo CamposGui SenaFlamerson SantosElizeu Venturae mais 9

Utilizamos cookies para personalizar sua experiência. Ao acessar o site, você concorda com a nossa Política de Privacidade.