busca

Canta Minh'Alma

Fernanda Brum

Tom: A
(intro)  F#m  F#m9  (2x)
         F#m  D  D#m7/5-  D

F#m      D         A
O meu coração Já se quebrantou
          E       F#m
Diante da tua glória amado meu
      D         A
Ouço esse som que me leva a ti
        E        A/C#  Bm
Não posso resistir ao teu cha-mar
        D       D#m7/5-
Que me faz te desejar bem mais
      A/D     E/G#
Que me faz subir mais alto

 D        A
Canta minh'alma solta o teu grito
 E          Bm       ( A/C# )
Corre até o céu no sobrenatural
 D
Em meio aos anjos
 A
Além do infinito
  E           C#m   D  Bm C#m A G#m F#m
Invade o coração de Deus

F#m      D         A
O meu coração Já se quebrantou
          E       F#m
Diante da tua glória amado meu
      D         A
Ouço esse som que me leva a ti
        E        A/C#  Bm
Não posso resistir ao teu cha-mar
        D       D#m7/5-
Que me faz te desejar bem mais
      A/D     E/G#
Que me faz subir mais alto

 D        A
Canta minh'alma solta o teu grito
 E          Bm       ( A/C# )
Corre até o céu no sobrenatural
 D
Em meio aos anjos
 A
Além do infinito
  E           C#m   D  Bm C#m A G#m
Invade o coração de Deus

(solo)    D  D#m/5-  D  A   E/G#


E|-9---9---9---9---9---9---9---9---| 
B|-12b-12b-12b-12b-12b-12b-12b-12b-| 
G|---------------------------------| 
D|---------------------------------| 
A|---------------------------------| 
E|---------------------------------| 

E|-14--14--14--14--14--14--14------| 
B|-16b-16b-16b-16b-16b-16b-16b-----|
G|---------------------------------| 
D|---------------------------------| 
A|---------------------------------| 
E|---------------------------------| 

E|-16b-16-14-----------------------| 
B|-----------9p10p9----------------| 
G|------------------11-9-----------| 
D|-----------------------9~~~~~~~~~| 
A|---------------------------------| 
E|---------------------------------| 


 D        A
Canta minh'alma solta o teu grito
 E          Bm        (A/C#)
Corre até o céu no sobrenatural
D
Em meio aos anjos
 A
Além do infinito
  E              C#m  D Bm C#m A G#m
Invade o coração de Deus

 D        A
Canta minh'alma solta o teu grito
 E          Bm        (A/C#)
Corre até o céu no sobrenatural
D
Em meio aos anjos
 A
Além do infinito
  E              C#m  D Bm C#m A G#m
Invade o coração de Deus

( C#m  D  Bm   C#m  A  G#m  F#m )

( F#m  F#m9 ) (2x)

Clipes

Cifra Club Pro

Aproveite o Cifra Club com benefícios exclusivos e sem anúncios
Cifra Club Pro
Aproveite o Cifra Club com benefícios exclusivos e sem anúncios