Espirito Santo

Fernanda Brum

A
123
X02220
A5(9)/C#
123
X42200
Am7
12
X02010
Am9
123
X02410
B
234
X24442
B4(7)
123
X2220X
Bm7
34
X24232
C/D
1
XX0010
C/G
1234
332X1X
C7M
12
X3200X
C9
34
X35533
D/C
1234
X3X232
D5(9)
134
X579XX
D5(9)/F#
123
200230
D7
123
XX0212
Dm7
34
X57565
Em
12
022000
Em7(9)
1234
X7577X
F/G
1234
3X321X
G
123
320003
G/B
123
X20033
G4
234
355533
G6/B
34
75575X
G7M
1234
3X443X
Tom: G
[Intro] Am7  G/B  B4(7)  A  D5(9)/F#  Am7  G/B  G

#1t1#              Am7 G/B            B4(7)
#1t2#E|------------------0----------0-2----------|
B|-0-------0--1---3----------1---0--0-0---0-|
G|-----0---------------0-0-0-----2------2---|
D|---0---0----------------------------------|
A|------------0---2-3------------2----------|
E|-3-------3--------------------------------|#/1t2##/1t1#

#2t1##2t2#E|-2-3---3-2--------------------------------|
B|------------------------------------------|
G|-----0------------------------------------|
D|---------0--------------------------------|
A|------------------------------------------|
E|---0--------------------------------------|#/2t2##/2t1#

#3t1#          A Harm               D5(9)/F#
#3t2#E|----------12------------------------------|
B|---3/5--5-------0-1-0-1-0-----------3-----|
G|-0------6----2------------0h2-2---2------2|
D|--------------------------------0------0--|
A|--------0---------0-----------------------|
E|------------------------3-----2------2----|#/3t2##/3t1#

#4t1#         Am7
#4t2#E|------------------------------------------|
B|---0-1-0-1--------------------------------|
G|-2----------------------------------------|
D|------------------------------------------|
A|-----0------------------------------------|
E|------------------------------------------|#/4t2##/4t1#

#5t1#     G/B                   G
#5t2#E|---------------------------3-2------------|
B|-3-----------------------3---3-5--3-----3-|
G|---0-0---0-----2/4\2-0-0-------5--4---0---|
D|------------------------------------0-----|
A|-2---3-3---3------------------------------|
E|-----------------------3-----3----3-------|#/5t2##/5t1#

#6t1##6t2#E|------------------------------------------|
B|------------------------------------------|
G|-------0----------------------------------|
D|-----0------------------------------------|
A|------------------------------------------|
E|---3--------------------------------------|#/6t2##/6t1#

[Primeira Parte]

          G     G/B      C9  G/B
Espírito Santo, ore por mim
 Am9                  D7             G4 G  C/G
Leve pra Deus tudo aquilo que eu preci-so
          G     G/B       C9    G/B
Espírito Santo, use as palavras
  Am9              D7              G4 G  Am7  G/B
Que eu necessito usar, mas não consi-go

#7t1#[Dedilhado - Primeira Parte]

     G                      G/B     C9
#7t2#E|-------3----------------------3-3---------|
B|-----3------3-------3---3---3---3---3-----|
G|---0------0---0---0---0---0-----0-0-------|
D|------------------------------------------|
A|------------------------2-------3---------|
E|-3-------3------3-------------------------|#/7t2##/7t1#

#8t1##8t2#E|-3----------------------------------------|
B|---3--------------------------------------|
G|-----0------------------------------------|
D|-------0----------------------------------|
A|------------------------------------------|
E|------------------------------------------|#/8t2##/8t1#

#9t1#     C9      G/B      Am9           D7
#9t2#E|-----3---3---3----------0-0-----2------2--|
B|-----3---3---3--------------1---1----1----|
G|---0---0---0---0------4-------2-2--2------|
D|--------------------2-----------0---------|
A|-3-------2--------0-----------------------|
E|------------------------------------------|#/9t2##/9t1#

#10t1##10t2#E|------------------------------------------|
B|-1----------------------------------------|
G|---2--------------------------------------|
D|-----0------------------------------------|
A|------------------------------------------|
E|------------------------------------------|#/10t2##/10t1#

#11t1#     G4 G         C/G
#11t2#E|--------------3----3----------------------|
B|-1--0---------5----5----------------------|
G|-0--0----0----5------5--------------------|
D|-------0---0--5--5-----5------------------|
A|------------------------------------------|
E|-3--3-------------------------------------|#/11t2##/11t1#

#12t1#     G4 G                  Am7  G/B
#12t2#E|------------------------------------------|
B|-1--0---------0--------1----3-------------|
G|-0--0----0--------0----0----0-------------|
D|-------0---0----0---0----0----0-----------|
A|-----------------------0----2-------------|
E|-3--3---------3---------------------------|#/12t2##/12t1#

[Segunda Parte]

     C7M                 D/C
Me ajude nas minhas fraquezas
     Bm7             Em7(9)
Não sei como devo pedir
          Am9    C/D                Dm7  F/G  G
Espírito Santo, vem interceder por mim

 C7M               B
Todas as coisa cooperam pra o bem
    Em       D5(9)   A5(9)/C#
Daqueles que amam a ti
          Am9    C/D
Espírito Santo, vem orar por mim

#13t1#[Dedilhado - Segunda Parte]

     C7M            D/C           Bm7
#13t2#E|-0---3-0------0-2-----2-----2-2---3-2-----|
B|-0---0-0----0---3---3-----3---3---3-3---2-|
G|-0-0------0-----2-2-----2-----2-2-----3---|
D|------------------------------------------|
A|-3------3-------3-------------2-----2-----|
E|------------------------------------------|#/13t2##/13t1#

#14t1#     Em7(9)
#14t2#E|---------0--------------------------------|
B|-------3---3------------------------------|
G|-----0------------------------------------|
D|---4--------------------------------------|
A|------------------------------------------|
E|-0----------------------------------------|#/14t2##/14t1#

#15t1#     Am9          C/D       Dm7          F/G
#15t2#E|-------0------0--0------1------1----------|
B|-----1---1----1----1----1----1---1---1----|
G|---4-------4--0------0--2--2-------2-2---2|
D|--------------0---------0------------3-3--|
A|-0----------------------------------------|
E|-------------------------------------3----|#/15t2##/15t1#

#16t1#     G
#16t2#E|------------------------------------------|
B|-3----------------------------------------|
G|-4---4------------------------------------|
D|-5-5--------------------------------------|
A|------------------------------------------|
E|------------------------------------------|#/16t2##/16t1#

#17t1#     C7M           B          Em      D5(9)
#17t2#E|-0-----0-----0-2-----2--------------------|
B|-0-----0-----0-4-----4--------0-------3---|
G|---0-----0---------4----4---0---0---2---2-|
D|-----------------4----4-----------0-------|
A|-3---3-----3---2--------------------------|
E|--------------------------0---------------|#/17t2##/17t1#

#18t1#     A5(9)/C#
#18t2#E|-0-----0----------------------------------|
B|-0---0------------------------------------|
G|-2-2--------------------------------------|
D|------------------------------------------|
A|-4----------------------------------------|
E|------------------------------------------|#/18t2##/18t1#

#19t1#       Am9             C/D
#19t2#E|---0-------0---------0-------0------------|
B|---------1---1-------1--1------1----------|
G|-2-----4-------4-----0----0------0--------|
D|---------------------0--------------------|
A|-----0-----------0------------------------|
E|------------------------------------------|#/19t2##/19t1#

Refrão:

G7M           Em7(9)             C9
    Estou clamando,  estou pedindo
 G6/B           Am7       C/D    G7M
Só Deus sabe a dor que estou sentindo
         Em7(9)      C9
Meu coração  está ferido
 G6/B         Am7   C/D   
Mas o meu clamor está  subindo

#20t1#[Dedilhado - Refrão]

   G7M              Em7(9)
#20t2#E|------------------------------------------|
B|-------3----------------3-----------------|
G|-----0-------0--------0-------0-----------|
D|---4-------4---4----4-------4---4---------|
A|------------------------------------------|
E|-3-------3--------0-------0---------------|#/20t2##/20t1#

#21t1#   C9       G6/B   Am7       C/D
#21t2#E|---0-----------------0---------0----------|
B|-3---3-------3---------1---------1--------|
G|-------0---0---0---0---------0------------|
D|---------------------------0--------------|
A|-3--------2------0------------------------|
E|------------------------------------------|#/21t2##/21t1#

[Intro - Com variação na terceira parte]

#22t1#   G/B                   G
#22t2#E|---------------------------3-2------------|
B|-3-----------------------3---3-5--3-----3-|
G|---0-0---0-----2/4\2-0-0-------5--4---0---|
D|------------------------------------0-----|
A|-2---3-3---3------------------------------|
E|-----------------------3-----3----3-------|#/22t2##/22t1#

#23t1#   Am7 G/B
#23t2#E|------------------------------------------|
B|-1---3------------------------------------|
G|-0---0------------------------------------|
D|------------------------------------------|
A|-0---2------------------------------------|
E|------------------------------------------|#/23t2##/23t1#

C7M        B
Todas as coisa cooperam pra o bem
    Em       D5(9)   A5(9)/C#
Daqueles que amam a ti
          Am9    C/D
Espírito Santo, vem orar por mim

[Final]

#24t1#     G                  C/D    G
#24t2#E|---------------0----0---------------------|
B|-0-------0-1-3---3--1------0--------------|
G|-----0--------------0--0h2----------------|
D|---0---0----------------------------------|
A|-----------0-2-3--------------------------|
E|-3-------3-----------------3--------------|#/24t2##/24t1#
Composição: EyshilaColaboração e revisão: Getúlio Vasconcelosronan limaPollyanna MachadoBreno e mais 11
Videoaula Espírito Santo (aula de violão completa)