busca

Redenção

Fernanda Brum

Tom: F#
[Intro] G#m  E  B  F#
        G#m  E  B  F#

 G#m7(11)      B
Vivo estou
                    C#4     C#  C#4  C#
Pois um dia Ele morreu por mim
 G#m7(11)     B                  C#4    C#  C#4  C#
Livre estou   pois um dia condenado foi
Db/F      Gb       Ab   Fm7        Bbm7
Ele mesmo se entregou decidiu morrer
         Ab
Foi por mim
Eb         Ab          Bb
  Toda iniqüidade ele levou
         Gm    Cm   F/A  Bb  Eb/G  Ab
Minha dívida pagou  me amou  redenção

C#m7            A
  Tudo foi por mim
 E                B
Derramou seu sangue
C#m7        A   E   B
  Não está ali  Ele ressuscitou
C#m7          A     E                     F#4  F#
  Sangue carmesim  derramou  sua vida em mim
         A     G#    C#
Ninguém teve amor assim

[Solo] C#m7  A  E  B  D#m7  
       B  F#  E  B  C#m7

E|-------------------------------------------------------------------------------|
B|-9-9-9-9/10-10--------------------11-11-11-11/12-12--11-9-12-11--11-9-10-9-----|
G|------------------9-11--11b-----10----------------------------------------11---|
D|---------------11--------------------------------------------------------------|
A|-------------------------------------------------------------------------------|
E|-------------------------------------------------------------------------------|

E|---------------------------------9-11-12----20---------------------------------|
B|-------------------------9-10-12-----------20-----20---------------------------|
G|-----8---8-9-8-9-11-9-11-------------------------------------------------------|
D|-9-11--11----------------------------------------------------------------------|
A|-------------------------------------------------------------------------------|
E|-------------------------------------------------------------------------------|

C#m7            A
  Tudo foi por mim
 E            B
Derramou seu sangue
 D#m7      B   F#    C#       D#m7
Não está ali  Ele ressuscitou
             B   F#                   F#/G#  G#
Sangue carmesin derramou sua vida em mim
         B     A#    D#m7
Ninguém teve amor assim

D#m7      D#m       B         B
Ele vive  ele vive  ele vive  ele vive
D#m7            D#m       B         B
Foi ao inferno  ele vive  ele vive  ele vive
 D#m7         
Tudo foi por mim

 F#            C#
Derramou seu sangue
 D#m7      B   F#    C#       D#m7
Não está ali  Ele ressuscitou
             B   F#                   F#/G#  G#
Sangue carmesin derramou sua vida em mim
         B     A#    G#
Ninguém teve amor assim
         B     A#    D#
Ninguém teve amor assim

Clipes

Cifra Club Pro

Aproveite o Cifra Club com benefícios exclusivos e sem anúncios
Cifra Club Pro
Aproveite o Cifra Club com benefícios exclusivos e sem anúncios