Redenção

Fernanda Brum

A
123
X02220
A#
234
X13331
B
234
X24442
Bbm7
34
X13121
C#
234
X46664
C#/F
1234
X8X699
C#4
1234
X4412X
C#m7
34
X46454
Cm
234
X35543
D#
234
X65343
D#/G
1234
3X134X
D#m
1234
XX1342
D#m7
1234
XX1322
E
123
022100
F#
234
244322
F#/G#
1234
4X432X
F#4
234
244422
F/A
1234
5X356X
Fm7
1234
1X111X
G#
234
431114
G#m
34
466444
G#m7(11)
1234
4X442X
Gm
34
355333
Tom: G
[Intro] G#m  E  B  F#
        G#m  E  B  F#

 G#m7(11)      B
Vivo estou
                    C#4     C#  C#4  C#
Pois um dia Ele morreu por mim
 G#m7(11)     B                  C#4    C#  C#4  C#
Livre estou   pois um dia condenado foi
C#/F      F#       G#   Fm7        Bbm7
Ele mesmo se entregou decidiu morrer
         G#
Foi por mim
D#         G#          A#
  Toda iniqüidade ele levou
         Gm    Cm   F/A  A#  D#/G  G#
Minha dívida pagou  me amou  redenção

C#m7            A
  Tudo foi por mim
 E                B
Derramou seu sangue
C#m7        A   E   B
  Não está ali  Ele ressuscitou
C#m7          A     E                     F#4  F#
  Sangue carmesim  derramou  sua vida em mim
         A     G#    C#
Ninguém teve amor assim

[Solo] C#m7  A  E  B  D#m7  
       B  F#  E  B  C#m7

#1t1##1t2#E|-------------------------------------------------------------------------------|
B|-9-9-9-9/10-10--------------------11-11-11-11/12-12--11-9-12-11--11-9-10-9-----|
G|------------------9-11--11b-----10----------------------------------------11---|
D|---------------11--------------------------------------------------------------|
A|-------------------------------------------------------------------------------|
E|-------------------------------------------------------------------------------|#/1t2##/1t1#

#2t1##2t2#E|---------------------------------9-11-12----20---------------------------------|
B|-------------------------9-10-12-----------20-----20---------------------------|
G|-----8---8-9-8-9-11-9-11-------------------------------------------------------|
D|-9-11--11----------------------------------------------------------------------|
A|-------------------------------------------------------------------------------|
E|-------------------------------------------------------------------------------|#/2t2##/2t1#

C#m7            A
  Tudo foi por mim
 E            B
Derramou seu sangue
 D#m7      B   F#    C#       D#m7
Não está ali  Ele ressuscitou
             B   F#                   F#/G#  G#
Sangue carmesin derramou sua vida em mim
         B     A#    D#m7
Ninguém teve amor assim

D#m7      D#m       B         B
Ele vive  ele vive  ele vive  ele vive
D#m7            D#m       B         B
Foi ao inferno  ele vive  ele vive  ele vive
 D#m7         
Tudo foi por mim

 F#            C#
Derramou seu sangue
 D#m7      B   F#    C#       D#m7
Não está ali  Ele ressuscitou
             B   F#                   F#/G#  G#
Sangue carmesin derramou sua vida em mim
         B     A#    G#
Ninguém teve amor assim
         B     A#    D#
Ninguém teve amor assim
Composição: Emerson Pinheiro / Fernanda BrumColaboração e revisão: Rubens OliveiraEricky Silvaeduardo lopesDaniel Lirae mais 8