busca

A Alegria do Senhor

Fernandinho

Tom: A#
Intro: C5 Bb5 Bb5/G Bb5 Bb5/A

E|------------1---
A|--3------1--1-0-
D|--5------3------
G|--5------3------
B|----------------
E|----------------

Gm11
Vento sopra forte
Gm11
Tuas águas não podem me afogar
Gm11
Vento sopra forte
Gm11
E em Suas mãos vou segurar

Cm11
E Não me guio pelo que vejo
Gm11
Mas eu sigo pelo que creio
Cm11
Eu não olho as circunstâncias
Eb             D
Eu vejo o Teu amor



Gm11            Bb5(9)               Eb5(9)  Cm11
Alegria do Senhor é a nossa força 4x

          Bb5(9)                Bb4
Essa alegria não vai mais sair
        Cm11            Gm11
Essa alegria não vai mais sair
Bb/D                       Eb
Essa alegria não vai mais sair
   F7(9)              Bb5(9)
De dentro do meu coração


                                      Eb5(9) Cm11
A Alegria do Senhor é a nossa força

Gm          Bb               D# Cm
A Alegria do Senhor é a nossa força
 (Cm Bb GM)

Ia ia ia aaaa Gm7 B9/G Eb/G 5x(Gm7)

Gm11                 Eb/G
Essa alegria não vai mais sair
Cm7/G                 Gm11
Essa alegria não vai mais sair 

Gm11                Eb/G
Essa alegria não vai mais sair 
F/G                Eb5(9)
De dentro do meu coração 2x

                                          Eb5(9) Cm11
A Alegria do Senhor é a nossa força

Gm11              Bb5(9)                      Eb5(9)  Cm11
A Alegria do Senhor é a nossa força
 (Cm11 Bb4 Gm11)

Base Baixo: G Bb D# G

E|-3-6-3-6--------3----------------------------
A|------------3---5------------------------------
D|--------------------------------------------------
G|--------------------------------------------------
2x

E|-3-6-3-6-----------------------------------6--3
A|------------3--5--3--5---3-----5----5--3----
D|--------------------------------------3-----------
G|---------------------------------------------------
Arranjo baixo Parte

Clipes