busca

A Alegria do Senhor

Fernandinho

A Alegria do Senhor - Fernandinho 

Vento sopra forte. As águas não podem me afogar
Vento sopra forte. E em Suas mãos vou segurar

(Entra o contrabaixo)

E|-3-3-3-6-6-6-6-6-6-3-3-3-----------3-3-3-6-6-6-6-6-6-6-5-6-5-6-5-6-5--
A|-------------------------6-6-6-5-6------------------------------------
D|----------------------------------------------------------------------
G|----------------------------------------------------------------------

1)

Vento sopra forte. As águas não podem me afogar
Vento sopra forte. E em Suas mãos vou segurar (2X)

E|-3-3-3-3-3-3-----3-3-3-3-3-3-------- 
A|------------------------------------
D|-------------3-5-------------3-5----
G|------------------------------------ (4X)

Não me guio pelo que vejo

E|------------------------------------ 
A|-3-3-3-3-3-3-----3-3-3-3-3-3--------
D|------------------------------------
G|-------------3-5-------------3-5----

Mas eu sigo pelo que creio

E|-3-3-3-3-3-3-----3-3-3-3-3-3-------- 
A|------------------------------------
D|-------------3-5-------------3-5----
G|------------------------------------

Eu não olho as circunstâncias

E|------------------------------------ 
A|-3-3-3-3-3-3-----3-3-3-3-3-3--------
D|------------------------------------
G|-------------3-5-------------3-5----

Eu vejo o Teu amor
E|-----------------------------------------------
A|-3-5-6-6-6-6-6-6-6-6--5-5-5-5-5-5-6-5-6-5-6-5--
D|-----------------------------------------------
G|-----------------------------------------------


A alegria do Senhor é a nossa força (4X)

E|-3-3-3-3-3-3-3-3-6-6-6-6-6-6-6-6--------------------------------------
A|---------------------------------6-6-6-6-6-6-6-6-3-3-3-3-6-5-6-5------
D|----------------------------------------------------------------------
G|---------------------------------------------------------------------- (4X)

Ponte
E|-3-3-3-6-6-6-6-6-6-3-3-3-----------3-3-3-6-6-6-6-6-6-6-5-6-5-6-5-6-5--
A|-------------------------6-6-6-5-6------------------------------------
D|----------------------------------------------------------------------
G|---------------------------------------------------------------------- (2X)

Volta para o 1)

Essa alegria não vai mais sair
Essa alegria não vai mais sair
Essa alegria não vai mais sair
De dentro do meu coração

A alegria do Senhor é a nossa força!

E|-3-3-3-3-3-3-3-3-6-6-6-6-6-6-6-6--------------------------------------
A|---------------------------------6-6-6-6-6-6-6-6-3-3-3-3-6-5-6-5------
D|----------------------------------------------------------------------
G|----------------------------------------------------------------------

Clipes