busca

A Alegria do Senhor

Fernandinho

Intro:
G:---------------------------------------------------/
D:---------------------------------------------------/
A:---------------------------------------------------/
E:---3-3-3-3-3-3-3-3-3-3-3-3-3-3-3-3-3-3-3-3-3-3-3-3-/  essa parte ela solta ee toca de novo

letra
G:----------------------------------------------------
D:----------------------------------------------------
A:----------------------------------------------------
E:--3-3-3-3-3-3-3-3-3-3-3-3-3-3-3-3-3-3-3-3-3-3-3-3-3-

repete a intro

Intro:
G:---------------------------------------------------/
D:---------------------------------------------------/
A:---------------------------------------------------/
E:---3-3-3-3-3-3-3-3-3-3-3-3-3-3-3-3-3-3-3-3-3-3-3-3-/  

letra
G:----------------------------------------------------
D:----------------------------------------------------
A:----------------------------------------------------
E:--3-3-3-3-3-3-3-3-3-3-3-3-3-3-3-3-3-3-3-3-3-3-3-3-3-

Nao me guio pelo que vejo mais pelo que creio
G:-----------------------------------------------------
D:-----------------------------------------------------
A:-3-3-3-3-3-3-3-3-3-3-3-3-3---------------------------
E:---------------------------3-3-3-3-3-3-3-3-3-3-3-3-3-

nao olho as sircunstançia vejo teu amor
G:-----------------------------------------------------
D:-----------------------------------------------------
A:-3-3-3-3-3-3-3-3-3-3-3-7-7-7-7-7-7-7-5-5-5-5-5-5-5-5-
E:-----------------------------------------------------

refrao
G:---------------------------------------
D:---------------------------------------
A:-----------1-1-1-1-1-7-7-7-7-7-5-5-5-5-
E:-3-3-3-3-3-----------------------------

RIIF junto com refrao
G:----------
D:----------
A:-3-5-0-1--
E:---------3

Clipes