busca

Abundante Chuva

Fernandinho

INTRO

G|-------------------------|       G|----------------|
D|-------------------------| (3x)  D|----------------|
A|-------------------------|       A|----------------|
E|--0-1-2--3-4--5-4-5--7-7-|       E|--0-1-2--3-4--5-|


INTERLÚDIO JUNTO COM A GUITARRA

G|----------------------|-----------------------|-------------------------|
D|----------------------|-----------------------|-------------------------|
A|--5-7-5-7-5-7-5-7/-10-|-5-7-5-7-5-7-5-7/-10-9-|-5-7-5-7-5-7-5-7/-10-9-7-|
E|----------------------|-----------------------|-------------------------|

G|-----------------------|---------------------|-----------------------|
D|-----------------------|---------------------|-----------------------|
A|-5-7-5-7-5-7-5-7/-10-9-|-5-7-5-7-5-7-5-7/-10-|-5-7-5-7-5-7-5-7/-10-9-|
E|-----------------------|---------------------|-----------------------|

G|------------------------|
D|------------------------|
A|-5-7-5-7-5-7-5-7/-10-9-7|
E|------------------------|

FINAL

G|-------------------------|      G|-------------------------|
D|-------------------------| (3x) D|-------------------------|
A|-------------------------|      A|-------------------------|
E|--0-1-2--3-4--5-4-5--7-7-|      E|--0-1-2-3-4--5-5-4-5-4-5-|

Clipes