busca

Abundante Chuva

Fernandinho

Tom: D
Introdução 1° guitarra - Wah Wah  
 
     E 
e|----0--- 
B|----0--- 
G|----9--- 
D|----9--- 
A|----7--- 
E|----0--- 
 
2° guitar 
 
e|----------------------------| 
B|----------------------------| 
G|----------------------------|   (3x) 
D|----------------------------| 
A|----------------------------| 
E|--0-1-2-3-4---4/5-4--5-6-7--| 
 
e|----------------------------| 
B|----------------------------| 
G|-------------2----2---2-----| 
D|-------------2----2---2-----| 
A|-------------0----0---0-----| 
E|--0-1-2-3-4-----------------| 
 
(00:51) 
e|----------------------------| 
B|--7H------------------------| 
G|-----9H~--------------------|    
D|----------------------------| 
A|----------------------------| 
E|----------------------------| 
(04:52) 
e|----------------------------| 
B|----------------------------| 
G|----------------------------|   (4x) 
D|----------------------------| 
A|----------------------------| 
E|--0-1-2-3-4---4/5-4--5-6-7--| 


Eu faço assim e fik bem legal, prestem atençao no tempo da musik ;)

Clipes