Abundante Chuva

Fernandinho

Principal
E
123
022100
Tom: G
Introdução 1° guitarra - Wah Wah  
 
#1t1#     E 
#1t2#e|----0--- 
B|----0--- 
G|----9--- 
D|----9--- 
A|----7--- 
E|----0--- #/1t2##/1t1#
 
2° guitar 
 
#2t1##2t2#e|----------------------------| 
B|----------------------------| 
G|----------------------------|   (3x) 
D|----------------------------| 
A|----------------------------| 
E|--0-1-2-3-4---4/5-4--5-6-7--| #/2t2##/2t1#
 
#3t1##3t2#e|----------------------------| 
B|----------------------------| 
G|-------------2----2---2-----| 
D|-------------2----2---2-----| 
A|-------------0----0---0-----| 
E|--0-1-2-3-4-----------------| #/3t2##/3t1#
 
#4t1#(00:51) 
#4t2#e|----------------------------| 
B|--7H------------------------| 
G|-----9H~--------------------|    
D|----------------------------| 
A|----------------------------| 
E|----------------------------| #/4t2##/4t1#
#5t1#(04:52) 
#5t2#e|----------------------------| 
B|----------------------------| 
G|----------------------------|   (4x) 
D|----------------------------| 
A|----------------------------| 
E|--0-1-2-3-4---4/5-4--5-6-7--| #/5t2##/5t1#


Eu faço assim e fik bem legal, prestem atençao no tempo da musik ;)
Composição: Colaboração e revisão: wemerson silva