Ainda Que a Figueira

Fernandinho

Principal
A
123
X02220
B
234
X24442
Bm
234
X24432
D
123
XX0232
E
123
022100
F#m
34
244222
G
123
320003
Tom: G
(intro)  F#m   A   E

F#m           E
Tu és a minha porção
Bm       D
Tu és a minha herança
F#m        E              Bm            D
Tu és o meu socorro nos dias de tribulação

A                  E
Mesmo que os meus pais me deixem
Bm           D
Mesmo que amigos me traiam
A                     E            Bm         D
Eu sei que em seus braços eu encontro salvação

(refrão 2x)
  A                   E
Ainda que a figueira não floreça
  Bm                     D
Ainda que a videira não dê o seu fruto
  A                    E
Mesmo que não haja alimento nos campos
       G           D
Eu me alegrarei em Ti

(intro)  F#m   A   E

(solo base) B  A  E

#1t1##1t2#E|----------------------------------|
B|----------------------------------|
G|-----2-2-----2-----2--2/4-1-2-2-2-| (2x)
D|-2/4-----2/4----2/4---------------|
A|----------------------------------|
E|----------------------------------|#/1t2##/1t1#

#2t1##2t2#E|--------------------------|
B|---10-12b-12-10-9---------|
G|-9----------------9-11----| (2x)
D|--------------------------|
A|--------------------------|
E|--------------------------|#/2t2##/2t1#

#3t1##3t2#E|------9--10b-9-------------|
B|---10------------10-9------|
G|-9---------------------11--|
D|---------------------------|
A|---------------------------|
E|---------------------------|#/3t2##/3t1#
Composição: Colaboração e revisão: marcus capilheiraigor CarvalhoPaulo SouzaGilbertoe mais 10
Videoaula Ainda Que a Figueira (aula de violão completa)