busca

Caia Fogo

Fernandinho

Tom: G#m
[Intro] G#m  B  F#
        G#m  B  F#

       G#m B        F#       
E|------------2--4------------------------------------|
B|-----4---4--------2---------------------------------|
G|-----6---4--------3---------------------------------|
D|-----6---4--------4---------------------------------|
A|---------2------------------------------------------|
E|-----4------------2---------------------------------|

       G#m B        F#       
E|------------2--4------------------------------------|
B|-5-4-4---4--------2---------------------------------|
G|-----6---4--------3---------------------------------|
D|-----6---4--------4---------------------------------|
A|---------2------------------------------------------|
E|-----4------------2---------------------------------|

[Primeira Parte]
 
        G#m     B      F#
Eu não posso ficar de pé 
                G#m  B  F#
Diante da Tua Glória

        G#m     B      F#
Eu não posso ficar de pé 
                G#m  B  F#
Diante da Tua Glória

[Segunda Parte]

         G#m              E
Sou teu templo, teu sacrifício 
         B                  F#
O teu altar vem queimar em mim

         G#m              E
Sou teu templo, teu sacrifício 
         B                  F#
O teu altar vem queimar em mim

( G#m  B  F# ) 
( G#m  B  F# ) 

[Primeira Parte]

        G#m     B      F#
Eu não posso ficar de pé 
                G#m  B  F#
Diante da Tua Glória

        G#m     B      F#
Eu não posso ficar de pé 
                G#m  B  F#
Diante da Tua Glória

[Segunda Parte]

         G#m              E
Sou teu templo, teu sacrifício 
         B                  F#
O teu altar vem queimar em mim

         G#m              E
Sou teu templo, teu sacrifício 
         B                  F#
O teu altar vem queimar em mim

[Refrão]

E                B
  Caia fogo dos céus
               G#m
Queima esse altar

Mostra pra esse povo
F#
   Que há Deus em Israel

E                B
  Caia fogo dos céus
               G#m
Queima esse altar

Mostra pra esse povo
F#
   Que há Deus em Israel

E                B
  Caia fogo dos céus
               G#m
Queima esse altar

Mostra pra esse povo
F#
   Que há Deus em Israel

( G#m  B  F# ) 
( G#m  B  F# ) 

       G#m B        F#       
E|------------2--4------------------------------------|
B|-----4---4--------2---------------------------------|
G|-----6---4--------3---------------------------------|
D|-----6---4--------4---------------------------------|
A|---------2------------------------------------------|
E|-----4------------2---------------------------------|

       G#m B        F#       
E|------------2--4------------------------------------|
B|-5-4-4---4--------2---------------------------------|
G|-----6---4--------3---------------------------------|
D|-----6---4--------4---------------------------------|
A|---------2------------------------------------------|
E|-----4------------2---------------------------------|

( G#m  B  F# ) 
( G#m  B  F# ) 

[Refrão]

E                B
  Caia fogo dos céus
               G#m
Queima esse altar

Mostra pra esse povo
F#
  Que há Deus em Israel

E                B
  Caia fogo dos céus
               G#m
Queima esse altar

Mostra pra esse povo
F#
  Que há Deus em Israel

E                B
  Caia fogo dos céus
               G#m
Queima esse altar

Mostra pra esse povo
F#
  Que há Deus em Israel

E                B
  Caia fogo dos céus
               G#m
Queima esse altar

Mostra pra esse povo
F#                   E
  Que há Deus em Israel

Clipes