busca

Chorem

Fernandinho

Tom: C
Intro: F Am

      F                          Am
E|-----------------------------------|
B|-10----8----10----8----10----8-----|
G|----10---10----10---10----10---9---|
D|-----------------------------------|
A|-----------------------------------|
E|-----------------------------------|

     F
E|-----------------------------------|
B|-10----8----10----8----10----8-----|
G|----10---10----10---10-------------|
D|-----------------------------------|
A|-----------------------------------|
E|-----------------------------------|

          F       Am
Livra Teu povo  Senhor
          F            Am
Livra Teu povo  Pai de Amor
   G              Am                   G      Em
Não deixes cair a vergonha sobre a Tua igreja

         F          Am
Secou a alegria dos homens
          F          Am
Se foi o alimento da terra
G         Am              G     Em
Volta e restitui ó Pai de Amor!

            Am  F      G
Chorem os ministros de Deus
        Am    F     G
Os sacerdotes do Senhor
Dm                  Am
Toca a trombeta em Sião
              F           G
Daí voz de jejum e de orações

(ministração) Am  F  G  Em  - 3x
              Dm  F  G

             Am F      G
Chorem os ministros de Deus
        Am    F     G
Os sacerdotes do Senhor
Dm                  Am
Toca a trombeta em Sião
              F          G
Daí voz de jejum e de orações

(Solo Final) F Am F Am F

E|-----------------------------------|
B|-10----8----10----8----10----8-----| (2x)
G|----10---10----10---10----10---9---|
D|-----------------------------------|
A|-----------------------------------|
E|-----------------------------------|

E|-----------------------------------|
B|-10----8----10----8----10----8-----| (2x)
G|----10---10----10---10----10-------|
D|-----------------------------------|
A|-----------------------------------|
E|-----------------------------------|

Clipes

Cifra Club Pro

Aproveite o Cifra Club com benefícios exclusivos e sem anúncios
7 dias grátis
Cifra Club Pro
Aproveite o Cifra Club com benefícios exclusivos e sem anúncios
7 dias grátis