Dançar Na Chuva

Fernandinho

D/F#
1234
2X0232
D5
134
X577XX
D5/A
123
557XXX
Em7
123
022030
G5
134
355XXX
G5/D
12
XX0033
Tom: G
Introdução:

#1t1#  P.M.   .      .      . .
#1t2#E|-----------------------------------------------------|
B|-----------------------------------------------------|
G|-----7---5~------------------------------------------|  (8x)
D|-0-0-7-0-5~---0-6--5-3-5-6-5-3p----------------------|
A|-0-0---0------0-6--5-3-5-6-5-3p----------------------|
E|-----------------------------------------------------|#/1t2##/1t1#


Primeira Parte:

D5
   Novo caminho para andar

Um novo sonho pra sonhar
                   G5/D       D5
O deserto não é o meu   lugar

Nova vida, Ele prometeu

A todo aquele que Nele crê
                        G5/D
O mar a nossa frente se abrirá


Primeiro Refrão:

D5/A                    A5/E
     Nova criatura, eu sou
                     B5/F#
O velho homem já morreu
                    A5/E
Vou dançar naquela terra
            G5
Que Ele prometeu
    D/F#     Em7  A5/E
Eu vou,  eu vou

D5/A                    A5/E
     Nova criatura, eu sou
                     B5/F#
O velho homem já morreu
                    A5/E
Vou dançar naquela terra
            G5
Que Ele prometeu
    D/F#     Em7  A5/E
Eu vou,  eu vou

(Riff 2)

#2t1#  P.M .  .  .  .  .  .  .  .  .  .  .  .  . . . . . .
#2t2#E|-----------------------------------------------------|
B|-----------------------------------------------------|
G|-----------------------------------------------------|
D|-----------------------------------------------------|
A|-2--2--4--5--2--2--4--5--2--2--4--5--2--2-2-2-2-2-2--|
E|-2--2--4--5--2--2--4--5--2--2--4--5--2--2-2-2-2-2-2--|#/2t2##/2t1#

#3t1#  P.M .  .  .  .  .  .  .  .
#3t2#E|-----------------------------------------------------|
B|-----------------------------------------------------|
G|-----------------------------------------------------|
D|-----------------------------------------------------|
A|-2--2--4--5--2--2--4--5--2---------------------------|
E|-2--2--4--5--2--2--4--5--2---------------------------|#/3t2##/3t1#
                       
Eu vou dançar na chuva
Eu vou dançar na chuva
Eu vou dançar na chuva


Interlúdio:

#4t1#  P.M.   .      .      . .
#4t2#E|-----------------------------------------------------|
B|-----------------------------------------------------|
G|-----7---5~------------------------------------------|  (4x)
D|-0-0-7-0-5~---0-6--5-3-5-6-5-3p----------------------|
A|-0-0---0------0-6--5-3-5-6-5-3p----------------------|
E|-----------------------------------------------------|#/4t2##/4t1#


Segunda Parte:

D5
   Novo caminho para andar

Um novo sonho pra sonhar
                   G5/D       D5
O deserto não é o meu   lugar

Nova vida, Ele prometeu

A todo aquele que Nele crê
                        G5/D
O mar a nossa frente se abrirá


Segundo Refrão:

D5/A                    A5/E
     Nova criatura, eu sou
                     B5/F#
O velho homem já morreu
                    A5/E
Vou dançar naquela terra
            G5
Que Ele prometeu
    D/F#     Em7  A5/E
Eu vou,  eu vou

D5/A                    A5/E
     Nova criatura, eu sou
                     B5/F#
O velho homem já morreu
                    A5/E
Vou dançar naquela terra
            G5
Que Ele prometeu
    D/F#     Em7  A5/E
Eu vou,  eu vou

                       (Riff 2)
Eu vou dançar na chuva
Eu vou dançar na chuva
                       B5/F#
Eu vou dançar na chuva


Ponte: Vocalização

(Riff 3)  D5/A

#5t1#  P.M .  .  .  .  .  .  .  .  .  .  .  .  .  .  .
#5t2#E|-----------------------------------------------------|
B|-----------------------------------------------------|
G|-----------------------------------------------------|
D|-----------------------------------------------------|
A|-2--2--4--5--2--2--4--5--2--2--4--5--2--2--4--5------|
E|-2--2--4--5--2--2--4--5--2--2--4--5--2--2--4--5------|#/5t2##/5t1#

#6t1#  P.M .  .  .  .  .  .  .  .  .  .  .  .  .  .  .
#6t2#E|-----------------------------------------------------|
B|-----------------------------------------------------|
G|-------------------------------------------------7---|
D|-------------------------------------------------7---|
A|-2--2--4--5--2--2--4--5--2--2--4--5--2--2--4--5--5---|
E|-2--2--4--5--2--2--4--5--2--2--4--5--2--2--4--5--5---|#/6t2##/6t1#


Terceiro Refrão:


Nova criatura, eu sou
                     B5/F#
O velho homem já morreu
                    A5/E
Vou dançar naquela terra
            G5
Que Ele prometeu
    D/F#     Em7  A5/E
Eu vou,  eu vou

D5/A                    A5/E
     Nova criatura, eu sou
                     B5/F#
O velho homem já morreu
                    A5/E
Vou dançar naquela terra
            G5
Que Ele prometeu
    D/F#     Em7  A5/E
Eu vou,  eu vou
                       B5/F#
Eu vou dançar na chuva
Composição: Colaboração e revisão: Vinícius DiasMatheus BragaGian RosaGabriela Marime mais 8
Videoaula Dançar na Chuva (aula de guitarra)