Dançar Na Chuva

Fernandinho

Principal
A
123
X02220
Bm
234
X24432
D
123
XX0232
Em
12
022000
F#m
34
244222
G
123
320003
Tom: G
Afinação: D A D G B E (Drop um tom na 6ª corda)

(intro)

(riff 1)

#1t1##1t2#E|---------------------------------|------------------------------|
B|---------------------------------|------------------------------|
G|--------7-5----------------------|-------7-5--------------------|
D|---0-0--7-5--6--5-3-0--6--5-3-0--|--0-0--7-5--6--5-3-0--6--5-3~-| (4x)
A|---0-0--5-3--6--5-3-0--6--5-3-0--|--0-0--5-3--6--5-3-0--6--5-3~-|
D|---0-0-------6--5-3-0--6--5-3-0--|--0-0-------6--5-3-0--6--5-3~-|#/1t2##/1t1#

   (Use este riff em todos os acordes D exceto no refrão)
     p.m.................................................
#2t1##2t2#E|----------------------------------------------------------------|
B|----------------------------------------------------------------|
G|----------------------------------------------------------------|
D|--0-0-0-0-0-0-0-0-0-0-0-0-0-0....-------------------------------|
A|--0-0-0-0-0-0-0-0-0-0-0-0-0-0....-------------------------------|
D|--0-0-0-0-0-0-0-0-0-0-0-0-0-0....-------------------------------|#/2t2##/2t1#

 (Use este riff em todos os acordes G exceto no refrão)
     p.m.................................................
#3t1##3t2#E|----------------------------------------------------------------|
B|----------------------------------------------------------------|
G|----------------------------------------------------------------|
D|---5-5-5-5-5-5-5....--------------------------------------------|
A|---5-5-5-5-5-5-5....--------------------------------------------|
D|---5-5-5-5-5-5-5....--------------------------------------------|#/3t2##/3t1#

 D
Novo caminho para andar,um novo sonho pra sonhar
                       G
O deserto não é o meu lugar
D
Uma nova vida Ele prometeu a todo aquele que Nele crê
                          G
O mar a nossa frente se abrirá

(refrão)
D              A                       Bm                    A
Nova criatura sou o velho homem já morreu vou dançar naquela terra que
         G       F#m      Em   A
Ele prometeu eu vou eu vou

D              A                     Bm                       A
Nova criatura sou o velho homem já morreu vou dançar naquela terra que
         G       F#m      Em   A
Ele prometeu eu vou eu vou

Eu vou dançar na chuvaaaaa!!!!!!

(riff 2)

#4t1#        (4x)           (1x)           (4x - final)
#4t2#E|------------------|---------|---------------------------------|
B|------------------|---------|---------------------------------|
G|------------------|---------|---------------------------------|
D|----9-9--11-12----|-9-9-9-9-|-----9-9--11-12------------------|
A|----9-9--11-12----|-9-9-9-9-|-----9-9--11-12------------------|
D|----9-9--11-12----|-9-9-9-9-|-----9-9--11-12------------------|#/4t2##/4t1#

(repete tudo)

(riff 3 "baixo" - 6x)

#5t1##5t2#E|--------------------------------------------------------------|
B|--------------------------------------------------------------|
G|--------------------------------------------------------------|
D|---------------7/9--------------------------------------------|
A|-----7/9------------------------------------------------------|
D|-9-9------9-9-------------------------------------------------|#/5t2##/5t1#

#6t1##6t2#E|--------------------------------------------------------------|
B|--------------------------------------------------------------|
G|--------------------------------------------------------------|
D|--9-9---9--8-8---8--7-7---7--6-6------------------------------|  (9x)
A|------9--------9--------9--------10-9-------------------------|
D|--------------------------------------------------------------|#/6t2##/6t1#

(essa riff fica no fundo enquanto o Fernandinho fica falando dance, dance, dance...)
(quando ele grita dance, dance, dance!!!!  Fica em B )

(riff 2)

#7t1#        (4x)           (1x)           (4x - final)
#7t2#E|------------------|---------|---------------------------------|
B|------------------|---------|---------------------------------|
G|------------------|---------|---------------------------------|
D|----9-9--11-12----|-9-9-9-9-|-----9-9--11-12------------------|
A|----9-9--11-12----|-9-9-9-9-|-----9-9--11-12------------------|
D|----9-9--11-12----|-9-9-9-9-|-----9-9--11-12------------------|#/7t2##/7t1#

#8t1#                     D     (acaba esse riff com D )
#8t2#E|--------------------------------------------------------------|
B|--------------------------------------------------------------|
G|--------------7-----------------------------------------------|
D|--------------7-----------------------------------------------|  2x
A|--------------5-----------------------------------------------|
D|--------------------------------------------------------------|#/8t2##/8t1#

(refrão)
D              A                       Bm                    A
Nova criatura sou o velho homem já morreu vou dançar naquela terra que
         G       F#m      Em   A
Ele prometeu eu vou eu vou

D              A                     Bm                       A
Nova criatura sou o velho homem ja morreu vou dançar naquela terra que
         G       F#m      Em   A
Ele prometeu eu vou eu vou
                         Bm     (no final)
Eu vou dançar na chuvaaaaa!!!!!!
Composição: Colaboração e revisão: Vitor Evangelista
Videoaula Dançar na Chuva (aula de guitarra)