Dançar Na Chuva

Fernandinho

Principal
A5
12
X022XX
B5
134
X244XX
D5
134
X577XX
E5
12
022XXX
F#5
134
244XXX
G5
134
355XXX
Tom: G
INTRO
                     Riff 1
#1t1##1t2#E|------------------------------------------------|
B|------------------------------------------------|
G|-----5-5-----7---5------------------------------|
D|-----5-5-----7---5---6-5-3-5-6-5-3--------------|   8x
A|---------------------6-5-3-5-6-5-3--------------|
E|------------------------------------------------|#/1t2##/1t1#

 D5
Novo caminho para andar,um novo sonho pra sonhar
                       G5
O deserto não é o meu lugar
D5
Uma nova vida Ele prometeu a todo aquele que nEle crê
                          G5
O mar a nossa frente se abrirá

REFRÃO

D5             A5                      B5                    A5
Nova criatura sou o velho homem já morreu vou dançar naquela terra que
         G5      F#5    E5   A5
Ele prometeu eu vou eu vou

D5             A5                     B5                     A5
Nova criatura sou o velho homem já morreu vou dançar naquela terra que
         G5      F#5    E5   A5
Ele prometeu eu vou eu vou

Eu vou dançar na chuvaaaaa!!!!!!

   Riff 2

#2t1##2t2#E|--------------------------------------------------------------|
B|--------------------------------------------------------------|
G|--------------------------------------------------------------|
D|--------------------------------------------------------------|  2x
A|--2-2--4-5---2-2--4-5--2-2--4-5—2-2-2---2-2--4-5---2-2--4-5--2|
E|--2-2--4-5---2-2--4-5--2-2--4-5-2-2-2---2-2--4-5---2-2--4-5--2|#/2t2##/2t1#

                       "volta para intro"

#3t1#     Riff 3 "baixo”
#3t2#E|--------------------------------------------------------------|
B|--------------------------------------------------------------|
G|--------------------------------------------------------------|
D|---------------7-9--------------------------------------------|  6x
A|-----7-9------------------------------------------------------|
E|-7-7------7-7-------------------------------------------------|#/3t2##/3t1#

#4t1##4t2#E|--------------------------------------------------------------|
B|--------------------------------------------------------------|
G|--------------------------------------------------------------|
D|--9-9---9--8-8---8--7-7---7--6-6------------------------------|  9x
A|------9--------9--------9--------10-9-------------------------|
E|--------------------------------------------------------------|#/4t2##/4t1#
"essa riff fica no fundo enquanto o fernandinho fica falando dance, dance, dance...”

e no fim quando ele grita dance, dance, dance!!!!  Fica em B5

Riff 2

#5t1##5t2#E|--------------------------------------------------------------|
B|--------------------------------------------------------------|
G|--------------------------------------------------------------|
D|--------------------------------------------------------------|  2x
A|--2-2--4-5---2-2--4-5--2-2--4-5—2-2-2---2-2--4-5---2-2--4-5---|
E|--2-2--4-5---2-2--4-5--2-2--4-5-2-2-2---2-2--4-5---2-2--4-5---|#/5t2##/5t1#
#6t1#                 D5     "acaba esse riff com D5 "
#6t2#E|--------------------------------------------------------------|
B|--------------------------------------------------------------|
G|--------------7-----------------------------------------------|
D|--------------7-----------------------------------------------|  2x
A|--------------5-----------------------------------------------|
E|--------------------------------------------------------------|#/6t2##/6t1#

REFRÃO

D5             A5                      B5                    A5
Nova criatura sou o velho homem já morreu vou dançar naquela terra que
         G5      F#5     E5   A5
Ele prometeu eu vou eu vou

D5             A5                      B5                    A5
Nova criatura sou o velho homem ja morreu vou dançar naquela terra que
         G5      F#5     E5   A5
Ele prometeu eu vou eu vou
                         B5     (no final)
Eu vou dançar na chuvaaaaa!!!!!!
Composição: Colaboração e revisão: arlison ivanCaio Costa
Videoaula Dançar na Chuva (aula de guitarra)