Dançar Na Chuva

Fernandinho

Principal
Tom: G
#1t1##1t2#E|------------------------------------------INTRODUÇAO
B|------------------------------------------
G|------------7----------------------------- 
D|------------7--------6-5-3-5-6-5-3-5------
A|--5------------------6-5-3-5-6-5-3-5------
E|--5---------------------------------------#/1t2##/1t1#


E na 4ª vez:

#2t1##2t2#G|--------------------------------- 
D|-----------6-5-3-5-6-5-3--------- 
A|--5(...)---------------------3-5- 
E|--------------------------------- #/2t2##/2t1#

Depois de “...no deserto não é o meu lugar": 

#3t1##3t2#G|------------------ 
D|--5-4-0-5-4------- 
A|------------------ 
E|------------------ #/3t2##/3t1#

Depois de “...nova vida ele prometeu": 

#4t1##4t2#G|--55-77-99-77-55-77-55----------- 
D|--------------------------------- 
A|--------------------------------- 
E|--------------------------------- #/4t2##/4t1#

1ª Parte do Solo: (Fica fazendo isso) 

#5t1##5t2#G|----------------------------------------------------------------------------- 
D|----------------7h9----------------7h9----------------7h9----------------7h9- 
A|------7h9----------------7h9----------------7h9---------------7h9------------ 
E|--77-------77--------77-------77--------77------77--------77------77--------- #/5t2##/5t1#

#6t1#2ª Parte do Solo: 
#6t2#G|-------------------------------- 
D|--99---9-1010---10-1111--1212-- 
A|-----8--------9--------10------ 
E|--------------------------------#/6t2##/6t1#

Composição: Colaboração e revisão: Gabriel Batistacesar benetton
Videoaula Dançar na Chuva (aula de guitarra)