Dançar Na Chuva

Fernandinho

Principal
Tom: G

E|-------------------------------
B|-------------------------------
G|------------7------------------
D|------------7--------6-5-3-5-6-
A|--5------------------6-5-3-5-6-
E|--5----------------------------

E|-----------INTRODUÇAO 
B|-----------           
G|-----------           
D|5-3-5------           
A|5-3-5------           
E|-----------           



E na 4ª vez:


G|-------------------------------
D|-----------6-5-3-5-6-5-3-------
A|--5(...)---------------------3-
E|-------------------------------

G|--  
D|--  
A|5-  
E|--  


Depois de “...no deserto não é o meu
 lugar":

G|------------------ D|--5-4-0-5-4------- A|------------------ E|------------------ Depois de “...nova vida ele prometeu": G|--55-77-99-77-55-77-55---------- D|-------------------------------- A|-------------------------------- E|-------------------------------- G|- D|- A|- E|- 1ª Parte do Solo: (Fica fazendo isso) G|------------------------------ D|----------------7h9----------- A|------7h9----------------7h9-- E|--77-------77--------77------- G|----------------------------------------------- D|-----7h9----------------7h9----------------7h9- A|--------------7h9---------------7h9------------ E|77--------77------77--------77------77--------- 2ª Parte do Solo: G|-------------------------------- D|--99---9-1010---10-1111--1212-- A|-----8--------9--------10------ E|-------------------------------- G| D| A| E|
Composição: Colaboração e revisão: Gabriel Batistacesar benetton
Videoaula Dançar na Chuva (aula de guitarra)