busca

Dançar Na Chuva

Fernandinho

Tom: D
E|----------------------------------------------]
A|------------3-0-----3-0-----------------------]
D|-00-----1-0-3-0-----3-0-----------------------]
G|-22-2-0-1-0-----1-0---------------------------] 8X
B|----3-1---------------------------------------]
E|----------------------------------------------]
D
NOVO CAMINHO PRA ANDAR...
                  G
O DESERTO NÃO É O MEU LUGAR
D
NOVA VIDA ELE PROMETEU...
                        G
O MAR A NOSSA FRENTE SE ABRIRÁ

D             A                    BM
NOVA CRIATURA SOU O VELHO HOMEM JÁ MORREU
                   A              G
VOU DANÇAR NAQUELA TERRA QUE ELE PROMETEU
  F#M      EM    A
EU VOU, EU VOU      2X

EU VOU DANÇAR NA CHUVA:
 BASE: F#M

E|--22-3-4-22-3-4-22-3-4---------------------------]  3X
A|--22-3-4-22-3-4-22-3-4---------------------------]
D|-------------------------------------------------]
G|-------------------------------------------------]
B|-------------------------------------------------]
E|-------------------------------------------------]


DANCE, DANCE, DANCE...

E|-------------------------------------------------]
A|----2------2----2--4-2-0-------------------------]
D|--22-2-1-1--1-00-0-------------------------------]
G|-------------------------------------------------]
B|-------------------------------------------------]
E|-------------------------------------------------]

Clipes

Cifra Club Pro

Aproveite o Cifra Club com benefícios exclusivos e sem anúncios
7 dias grátis
Cifra Club Pro
Aproveite o Cifra Club com benefícios exclusivos e sem anúncios
7 dias grátis