Dançar Na Chuva

Fernandinho

Principal
A
123
X02220
D
123
XX0232
G
123
320003
Tom: G
#1t1##1t2#E|----------------------------------------------]
A|------------3-0-----3-0-----------------------]
D|-00-----1-0-3-0-----3-0-----------------------]
G|-22-2-0-1-0-----1-0---------------------------] 8X
B|----3-1---------------------------------------]
E|----------------------------------------------]#/1t2##/1t1#
D
NOVO CAMINHO PRA ANDAR...
                  G
O DESERTO NÃO É O MEU LUGAR
D
NOVA VIDA ELE PROMETEU...
                        G
O MAR A NOSSA FRENTE SE ABRIRÁ

D             A                    BM
NOVA CRIATURA SOU O VELHO HOMEM JÁ MORREU
                   A              G
VOU DANÇAR NAQUELA TERRA QUE ELE PROMETEU
  F#M      EM    A
EU VOU, EU VOU      2X

EU VOU DANÇAR NA CHUVA:
 BASE: F#M

#2t1##2t2#E|--22-3-4-22-3-4-22-3-4---------------------------]  3X
A|--22-3-4-22-3-4-22-3-4---------------------------]
D|-------------------------------------------------]
G|-------------------------------------------------]
B|-------------------------------------------------]
E|-------------------------------------------------]#/2t2##/2t1#


DANCE, DANCE, DANCE...

#3t1##3t2#E|-------------------------------------------------]
A|----2------2----2--4-2-0-------------------------]
D|--22-2-1-1--1-00-0-------------------------------]
G|-------------------------------------------------]
B|-------------------------------------------------]
E|-------------------------------------------------]#/3t2##/3t1#

Composição: Colaboração e revisão: ANDRELICE PAREDES
Videoaula Dançar na Chuva (aula de guitarra)