busca

Deus Não Está Morto (God's Not Dead)

Fernandinho

Tom: B
[Intro] G#m7  F#  B9 
        G#m7  F#  B9 
        G#m7  F#  B9 

[Solo - Intro 3x]

E|------------------------------------------|
B|------------------------------------------|
G|-11-11-11-8-8-8-8-8--11-11-11-3-3-3-3-----|
D|------------------------------------------|
A|------------------------------------------|
E|------------------------------------------|

E|------------------------------------------|
B|------------------------------------------|
G|-3/4-4-4-4-4-4-4-4-4-4-4-4-4-4-4----------|
D|------------------------------------------|
A|------------------------------------------|
E|------------------------------------------|

[Primeira Parte]

G#m7            F#          B9
     O amor vai explodir e vai trazer
C#m7           G#m7
     Vida aos mortos 
          E
Eu quero ver
Esta revolução

( G#m7  F#  B9 )

E|------------------------------------------|
B|------------------------------------------|
G|-11-11-11-8-8-8-8-8--11-11-11-------------|
D|------------------------------8-8-8-8-8---|
A|------------------------------------------|
E|------------------------------------------|

E|------------------------------------------|
B|------------------------------------------|
G|------------------------------------------|
D|-8/9-9-9-9-9-9-9-9-9-9-9-9-9-9-9----------|
A|------------------------------------------|
E|------------------------------------------|

G#m7            F#          B9
     O amor vai explodir e vai trazer
C#m7           G#m7
     Vida aos mortos 
          E
Eu quero ver
Esta revolução

[Pré-Refrão]

F#                     G#m7
  Perdido em Tua liberdade
F#               E
  Esse mundo eu vencerei

[Refrão]

     F#                
Meu Deus não está morto
             G#m7
Vivo está aqui dentro de mim
Rugindo como leão
     F#
Meu Deus não está morto
             G#m7
Vivo está aqui dentro de mim
      E
Rugindo como leão

     G#m7
Ele ruge
     F#
Ele ruge
     B9
Ele ruge como leão

[Segunda Parte]

G#m7              F#
    A esperança cresce 
     B9
As trevas fugirão
C#m7                G#m7   
     Minha fé está morta
         E
Eu necessito de ressurreição

[Pré-Refrão]

F#                     G#m7
  Perdido em Tua liberdade
F#               E
  Esse mundo eu vencerei

[Refrão]

     F#                
Meu Deus não está morto
             G#m7
Vivo está aqui dentro de mim
Rugindo como leão
     F#
Meu Deus não está morto
             G#m7
Vivo está aqui dentro de mim
      E
Rugindo como leão

     G#m7
Ele ruge
     F#
Ele ruge
     B9
Ele ruge como leão
     G#m7
Ele ruge
     F#
Ele ruge

[Ponte]

             B9
O céu vai rugir
           F#/A#
E o fogo cair
               G#m7
O chão vai tremer
                   C#m7
Com o som do avivamento

             B9
O céu vai rugir
           F#/A#
E o fogo cair
               G#m7
O chão vai tremer
                   C#m7
Com o som do avivamento

             B9
O céu vai rugir
           F#/A#
E o fogo cair
               G#m7
O chão vai tremer
                   C#m7
Com o som do avivamento

[Refrão]

     F#                
Meu Deus não está morto
             G#m7
Vivo está aqui dentro de mim
Rugindo como leão
     F#
Meu Deus não está morto
             G#m7
Vivo está aqui dentro de mim
      E
Rugindo como leão

     F#                
Meu Deus não está morto
             G#m7
Vivo está aqui dentro de mim
Rugindo como leão
     F#
Meu Deus não está morto
             G#m7
Vivo está aqui dentro de mim
      E
Rugindo como leão

     G#m7
Ele ruge
     F#
Ele ruge
     B9
Ele ruge como leão
     G#m7
Ele ruge
     F#
Ele ruge
     B9
Ele ruge como leão

[Final] G#m7  F#  B9

E|------------------------------------------|
B|------------------------------------------|
G|-11\8--11\3-4~----------------------------|
D|------------------------------------------|
A|------------------------------------------|
E|------------------------------------------|

Clipes

Cifra Club Pro

Aproveite o Cifra Club com benefícios exclusivos e sem anúncios
7 dias grátis
Cifra Club Pro
Aproveite o Cifra Club com benefícios exclusivos e sem anúncios
7 dias grátis