busca

Dono do Mundo

Fernandinho

Tom: G
Intro:   Em    G    Em    G    Am    C   Am   C

                Em    G              Em       G
E|-----------------------------------------------------------------------||
B|-----------------------------------------------------------------------|| 
D|--5-4---------------------5-4----------------------------------||
G|------2--4-5--------------------2--4-5-------------------------------||
A|--------------------------------------------------------------------||
E|-----------------------------------------------------------------||
                        Am           C                                            (2x)
E|-----------------------------------------------------------------||
B|---------------------------------------------------------------||
D|-----------------4-5-4-----------4-5-7-9---------------------------------||
G|---------------5-------2-------5-------------------------------------||
A|---------------------------------------------------------------------||
E|----------------------------------------------------------------------||

G                       D
       Dono do mundo
C
  Dono do meu coração
G                     D
       Rei soberano
C                                           Am
      o dominio está em Tuas mão
                          Em    D/F#      G
Não há nada que eu possa       fazer 
                       D
sem Tua presença
Am                    Em    D/F#   G
          És a minha força o meu refúgio 
                D
Libertador
              G          D/F#
Grandioso, Vencedor
              Em                C
Em Teu nome há Poder
          G             D/F#
Glorioso, Majestoso
          Em    D     C
Minha vida eu Te dou

Solo:  G  D/F#  F  C  G  D/F#  C  D

Final 2x:  Em   G

Clipes