busca

Dono do Mundo

Fernandinho

Tom: E
E|----------------------------9------------------------9------------------
B|----------------------11-12---14b16r14---------11-12----14b16r14-14-14~-
G|--------8-9-11---8-11---------------------8-11--------------------------
D|------9--------9------------------------9-------------------------------
A|-7-11-------------------------------------------------------------------
E|------------------------------------------------------------------------

E|------------------------------------
B|----12----12/17b19r17-16-17-16\12~--
G|-11----11---------------------------
D|------------------------------------
A|------------------------------------
E|------------------------------------

E|----------12-13-14-10--------------10----
B|-18b20r18-------------12----10-12-----12-
G|-------------------------11--------------
D|-----------------------------------------
A|-----------------------------------------
E|-----------------------------------------

E|----------------------------------------------------------
B|--------------------------------------------------3-------
G|-9b10r9p7-9p7----4b5r4p2-4p2--------------------2---4-4~--
D|--------------9~-------------4-2/3\2p0-2p0----4-----------
A|-------------------------------------------2--------------
E|----------------------------------------------------------

E|------------------------
B|------------------------
G|-9b11r9p7h9b11t21p18b20-
D|------------------------
A|------------------------
E|------------------------

Clipes

Cifra Club Pro

Aproveite o Cifra Club com benefícios exclusivos e sem anúncios
7 dias grátis
Cifra Club Pro
Aproveite o Cifra Club com benefícios exclusivos e sem anúncios
7 dias grátis