busca

Emanuel

Fernandinho

Tom: E
Intro :
                        E                   B         
E|-------------------|----------------------------------------
B|-------------------|--5-5-5-------5-------7-7-7--------7-4--
G|------1-2-1---1-2--|--------4-4-4---4------------4-4-4------
D|--1/2-------2------|----------------------------------------
A|-------------------|----------------------------------------
E|-------------------|----------------------------------------

   G#m                   A 
E|--4-4-4--------4-------5-5-5-------5--
B|--------5-5-5----5-----------5-5-5----
G|--------------------------------------
D|--------------------------------------
A|--------------------------------------
E|--------------------------------------

    E                   B                  G#m                  A 
E|--4---4---4---4-5-----4---4---4---4-5-----4---4---4---4-5-----4---4---4---4-5
B|----5---5---5-----------5---5---5-----------5---5---5-----------5---5---5----
G|-----------------------------------------------------------------------------
D|-----------------------------------------------------------------------------
A|-----------------------------------------------------------------------------
E|-----------------------------------------------------------------------------

Ou pode ser :

                        E                    B
E|-------------------|-------------------------------------------
B|-------------------|-------------------------------------------
G|-------------------|--9-9-9-------9-------11-11-11--------11---
D|------6-7-6---6-7--|--------9-9-9---9--------------9-9-9-----9-
A|--6/7-------7------|-------------------------------------------
E|-------------------|-------------------------------------------
 
   G#m                              A
E|------------------------------------------------------
B|--------------------------------------------------10--
G|--13-13-13---9-9-9----13-9-------14-14-14---9-9-9-----
D|------------------------------------------------------
A|------------------------------------------------------
E|------------------------------------------------------

    E                        B                       G#m                       A 
E|------------------------------------------------------------------------------------------------
B|--9---9---9-----9-10-------9---9---9-----9-10-------9---9---9-----9-10-------9---9---9-----9-10-
G|----9---9---9----------------9---9---9----------------9---9---9----------------9---9---9--------
D|------------------------------------------------------------------------------------------------
A|------------------------------------------------------------------------------------------------
E|------------------------------------------------------------------------------------------------

E               B                G#m   A                  
Desceu da Sua glória pra estar comigo
Morreu numa cruz pra estar comigo
Venceu o diabo pra estar comigo
E            B                E E - B B - D D - A A   
O véu se rasgou pra estar comigo



   E                 B                 G#m          A 
Maravilhoso, conselheiro, Deus forte, Príncipe da paz   (4x)
      E        B      G#m  A 
€manuel, €manuel, €manuel     (4x)



Solo :

E|---------------------------------------------------------------------------|
B|---------------------------------------------------------------------------|
G|---9----9--------8----8----------------------------------------------------|
D|-----9----9--------9----9--------9----9-------------11----11---------------|  ...
A|-----------------------------------11---11-------------12----12------------|
E|---------------------------------------------------------------------------|

Clipes

Cifra Club Pro

Aproveite o Cifra Club com benefícios exclusivos e sem anúncios
7 dias grátis
Cifra Club Pro
Aproveite o Cifra Club com benefícios exclusivos e sem anúncios
7 dias grátis