busca

Emanuel

Fernandinho

Tom: E
[Intro]

E|--------------------|
B|--------------------|
G|--------------------|
D|----6-7-6---6-7p6---|
A|-/7-------7---------|
E|--------------------|

[Solo]

E|-------------------------------------|
B|-------------------------------------|
G|-9-9-9-------9---11-11-11-------11---|
D|-------9-9-9---9----------9-9-9----9-|
A|-------------------------------------|
E|-------------------------------------|

E|-------------------------------------|
B|-9-9-9-------9---10-10-10-------10---|
G|-------9-9-9---9----------9-9-9----9-|
D|-------------------------------------|
A|-------------------------------------|
E|-------------------------------------|

E|------------------|
B|-9---9---9---9p10-|
G|---9---9---9------|
D|------------------|
A|------------------|
E|------------------|

E|--------------------------------------|
B|--------------------------------------|
G|-9-9-9-9-9-9-9-9-9-9-9-9-9-9.......---|
D|--------------------------------------|
A|--------------------------------------|
E|--------------------------------------|

( E  B  C#m  A )

E              B                  C#m  A
Deixou a Sua glória para estar comigo
E             B                C#m  A
Morreu numa cruz para estar comigo
E5         B5              G#m5   A5
Venceu o diabo para estar comigo
E5          B5              ( E5  B5  D5  A5 )
O véu se rasgou para estar comigo

[Refrão]

E|-------------------------------------|
B|-------------------------------------|
G|-9-9-9-------9---11-11-11-------11---|
D|-------9-9-9---9----------9-9-9----9-|
A|-------------------------------------|
E|-------------------------------------|

E|-------------------------------------|
B|-9-9-9-------9---10-10-10-------10---|
G|-------9-9-9---9----------9-9-9----9-|
D|-------------------------------------|
A|-------------------------------------|
E|-------------------------------------|
 
      E5              B5
Maravilhoso, conselheiro, Deus forte
G#m5          A5
Príncipe da paz                         

E5        B5        G#m5     A5
Emanuel, Emanuel, Emanuel

E              B                  C#m  A
Deixou a Sua glória para estar comigo
E             B                C#m  A
Morreu numa cruz para estar comigo
E5         B5              G#m5   A5
Venceu o diabo para estar comigo
E5          B5              ( E5  B5  D5  A5 )
O véu se rasgou para estar comigo

[Refrão]

E|-------------------------------------|
B|-------------------------------------|
G|-9-9-9-------9---11-11-11-------11---|
D|-------9-9-9---9----------9-9-9----9-|
A|-------------------------------------|
E|-------------------------------------|

E|-------------------------------------|
B|-9-9-9-------9---10-10-10-------10---|
G|-------9-9-9---9----------9-9-9----9-|
D|-------------------------------------|
A|-------------------------------------|
E|-------------------------------------|
       E5              B5
Maravilhoso, conselheiro, Deus forte
G#m5          A5
Príncipe da paz                         

E5        B5        G#m5    A5
Emanuel, Emanuel, Emanuel

E|-------------------------------|
B|-------------------------------|
G|-/9--9--9--8--8--4--4--6--6----| (6x)
D|-/9---9--9--9--9--6--6--7--7---|
A|-------------------------------|
E|-------------------------------|

       E5              B5
Maravilhoso, conselheiro, Deus forte
G#m5          A5
Príncipe da paz

E5        B5        G#m5    A5
Emanuel, Emanuel, Emanuel

Clipes