busca

Eu Navegarei

Fernandinho

Tom: D#
Intro: Cm7  G#  D#  A#

Riff (2x)


E|-11-10-8---------------------|
B|---------11-8-11-8-----------|
G|------------------10---------|
D|-----------------------------|
A|-----------------------------|
E|-----------------------------|



Cm7                  G#
   Tu és a minha luz,  a minha salvação
    D#         A#
E a Ti me renderei
Cm7                    G#
   Se ao Teu lado estou, seguro em tuas mãos
   D#       A#
Eu nada temerei

G#   A#    Cm7       D#         A#
Oh   Oh    Oh, Tu és Santo oh Senhor
G#   A#    Cm7       D#         A#
Oh   Oh    Oh, Tu és Digno de Louvor

G#           D#                  Cm7
Só em Ti confiarei, em nada temerei.
              A#                          G#
Em frente eu irei, pois eu sei que vivo estás
             Cm7                    D#
E um dia voltarás, do céu pra nos buscar
               A#       G#
Pra sempre reinarás, Aleluia  

( Cm7  G#  D#  A# )

Riff (2x)


E|-11-10-8---------------------|
B|---------11-8-11-8-----------|
G|------------------10---------|
D|-----------------------------|
A|-----------------------------|
E|-----------------------------|


Cm7                  G#
   Tu és a minha luz,  a minha salvação
    D#         A#
E a Ti me renderei


Cm7                    G#
   Se ao Teu lado estou, seguro em tuas mãos
   D#       A#
Eu nada temerei

G#   A#    Cm7       D#         A#
Oh   Oh    Oh, Tu és Santo oh Senhor
G#   A#    Cm7       D#         A#
Oh   Oh    Oh, Tu és Digno de Louvor

G#           D#               Cm7
Só em Ti confiarei, em nada temerei.
              A#                          G#
Em frente eu irei, pois eu sei que vivo estás
             Cm7                    D#
E um dia voltarás, do céu pra nos buscar
               A#       G#
Pra sempre reinarás, Aleluia  

( Cm7  D#  A#  G# ) 2x



( D#  G#  D#  A# )
Riff (2x)


E|--------------------------|
B|-4-6-8-4-9-8-4-6-8-3-4-3--|
G|--------------------------|
D|--------------------------|
A|--------------------------|
E|--------------------------|


       D#        G#
Vem Jesus, vem Jesus
    D#                    A#
Maranata, ora vem Senhor Jesus. (8x)
A#
234
X13331
Cm7
34
X35343
D#
3ª234
X65343
G#
234
431114

Clipes