Eu Vou Subir a Montanha

Fernandinho

Principal
Instrumento: Baixo
Intro: 2X
E|------------66------66------
A|---------------4444-----7777
D|-----------------------------
G|-----------------------------

Parte 1:
E|--6-0-6-0-6-0-4h6-6----------
A|-----------------------------
D|-----------------------------
G|-----------------------------

Verso 2X:
E|-------44-----------0-4h6-6--
A|---8-6----------6-4----------
D|------------5-4--------------
G|----------------------------- E|----22222222---444444444------0-4h6-6--- A|---------------------------------------- D|---------------------------------------- G|---------------------------------------- E|----6666666---8888888------9999999----11-11-11-11-11-11-11/19--- A|---------------------------------------------------------------- D|---------------------------------------------------------------- G|---------------------------------------------------------------- Refrão: E|—-------444----------------------------------44------------------ A|-22—44---------7/9-7-9----222-444---666666---------------------- D|---------------------------------------------------------------- G|---------------------------------------------------------------- E|------------66-------------- A|---------------4444h----66666 D|----------------------------- G|----------------------------- (Intro) (2x) Riff: E|--------------------------------- A|---------------------------10-8-- D|-------------10-8-----10-8------- G|-----11-10-8------10-8-----------
Composição: FernandinhoColaboração e revisão: FRANÇUALDO